0
SECTION
2
HEADER
0
ENDSEC
0
SECTION
2
TABLES
0
TABLE
2
LTYPE
0
LTYPE
72
65
70
64
2
CONTINUOUS
3
______
73
0
40
0
0
ENDTAB
0
TABLE
2
LAYER
0
LAYER
2
DEFAULT_255_2_778
70
0
62
255
6
CONTINUOUS
0
LAYER
2
DEFAULT_4_2_778
70
0
62
4
6
CONTINUOUS
0
ENDTAB
0
ENDSEC
0
SECTION
2
ENTITIES
0
LINE
8
DEFAULT_255_2_778
10
39.6874989
20
21.0839838
11
39.6874989
21
-3.720703
0
LINE
8
DEFAULT_255_2_778
10
39.6874989
20
33.4863272
11
39.6874989
21
58.291014
0
LINE
8
DEFAULT_255_2_778
10
27.2851555
20
33.4863272
11
52.0898423
21
33.4863272
0
LINE
8
DEFAULT_255_2_778
10
52.0898423
20
33.4863272
11
52.0898423
21
21.0839838
0
LINE
8
DEFAULT_255_2_778
10
52.0898423
20
21.0839838
11
27.2851555
21
21.0839838
0
LINE
8
DEFAULT_255_2_778
10
27.2851555
20
21.0839838
11
27.2851555
21
33.4863272
0
LINE
8
DEFAULT_4_2_778
10
37.2070302
20
58.291014
11
42.1679676
21
58.291014
0
LINE
8
DEFAULT_4_2_778
10
39.6874989
20
60.7714827
11
39.6874989
21
58.291014
0
LINE
8
DEFAULT_4_2_778
10
37.2070302
20
-3.720703
11
42.1679676
21
-3.720703
0
LINE
8
DEFAULT_4_2_778
10
39.6874989
20
-3.720703
11
39.6874989
21
-6.2011717
0
ENDSEC
0
EOF