0
SECTION
2
HEADER
0
ENDSEC
0
SECTION
2
TABLES
0
TABLE
2
LTYPE
0
LTYPE
72
65
70
64
2
CONTINUOUS
3
______
73
0
40
0
0
ENDTAB
0
TABLE
2
LAYER
0
LAYER
2
DEFAULT_255_2_778
70
0
62
255
6
CONTINUOUS
0
LAYER
2
DEFAULT_4_2_778
70
0
62
4
6
CONTINUOUS
0
ENDTAB
0
ENDSEC
0
SECTION
2
ENTITIES
0
LINE
8
DEFAULT_255_2_778
10
33.4863272
20
34.7265615
11
58.291014
21
34.7265615
0
LINE
8
DEFAULT_255_2_778
10
58.291014
20
34.7265615
11
58.291014
21
22.3242181
0
LINE
8
DEFAULT_255_2_778
10
58.291014
20
22.3242181
11
33.4863272
21
22.3242181
0
LINE
8
DEFAULT_255_2_778
10
33.4863272
20
22.3242181
11
33.4863272
21
34.7265615
0
LINE
8
DEFAULT_255_2_778
10
21.0839838
20
34.7265615
11
33.4863272
21
34.7265615
0
LINE
8
DEFAULT_255_2_778
10
33.4863272
20
34.7265615
11
33.4863272
21
22.3242181
0
LINE
8
DEFAULT_255_2_778
10
33.4863272
20
22.3242181
11
21.0839838
21
22.3242181
0
LINE
8
DEFAULT_255_2_778
10
21.0839838
20
22.3242181
11
21.0839838
21
34.7265615
0
LINE
8
DEFAULT_255_2_778
10
45.8886706
20
59.5312483
11
45.8886706
21
34.7265615
0
LINE
8
DEFAULT_255_2_778
10
45.8886706
20
-2.4804819
11
45.8886706
21
22.3242049
0
LINE
8
DEFAULT_255_2_778
10
21.0839838
20
28.5253766
11
33.4863272
21
28.5253766
0
LINE
8
DEFAULT_4_2_778
10
42.7880847
20
59.5312483
11
48.9892564
21
59.5312483
0
LINE
8
DEFAULT_4_2_778
10
45.8886706
20
62.6318408
11
45.8886706
21
59.531255
0
LINE
8
DEFAULT_4_2_778
10
42.7880847
20
-2.4804621
11
48.9892564
21
-2.4804621
0
LINE
8
DEFAULT_4_2_778
10
45.8886706
20
-2.4804753
11
45.8886706
21
-5.5810611
0
ENDSEC
0
EOF