0
SECTION
2
HEADER
0
ENDSEC
0
SECTION
2
TABLES
0
TABLE
2
LTYPE
0
LTYPE
72
65
70
64
2
CONTINUOUS
3
______
73
0
40
0
0
ENDTAB
0
TABLE
2
LAYER
0
LAYER
2
DEFAULT_255_2_778
70
0
62
255
6
CONTINUOUS
0
LAYER
2
DEFAULT_4_2_778
70
0
62
4
6
CONTINUOUS
0
ENDTAB
0
ENDSEC
0
SECTION
2
ENTITIES
0
LINE
8
DEFAULT_255_2_778
10
39.6874989
20
22.3242181
11
39.6874989
21
-2.4804687
0
LINE
8
DEFAULT_255_2_778
10
39.6874989
20
34.7265615
11
39.6874989
21
59.5312483
0
LINE
8
DEFAULT_255_2_778
10
27.2851555
20
34.7265615
11
52.0898423
21
34.7265615
0
LINE
8
DEFAULT_255_2_778
10
52.0898423
20
34.7265615
11
52.0898423
21
22.3242181
0
LINE
8
DEFAULT_255_2_778
10
52.0898423
20
22.3242181
11
27.2851555
21
22.3242181
0
LINE
8
DEFAULT_255_2_778
10
27.2851555
20
22.3242181
11
27.2851555
21
34.7265615
0
LINE
8
DEFAULT_255_2_778
10
43.4082151
20
34.7265615
11
37.2070434
21
22.3242181
0
LINE
8
DEFAULT_255_2_778
10
48.3691525
20
34.7265615
11
42.1679808
21
22.3242181
0
LINE
8
DEFAULT_4_2_778
10
36.586913
20
59.5312483
11
42.7880847
21
59.5312483
0
LINE
8
DEFAULT_4_2_778
10
39.6874989
20
62.6318408
11
39.6874989
21
59.531255
0
LINE
8
DEFAULT_4_2_778
10
36.586913
20
-2.4804621
11
42.7880847
21
-2.4804621
0
LINE
8
DEFAULT_4_2_778
10
39.6874989
20
-2.4804753
11
39.6874989
21
-5.5810611
0
ENDSEC
0
EOF