0
SECTION
2
HEADER
0
ENDSEC
0
SECTION
2
TABLES
0
TABLE
2
LTYPE
0
LTYPE
72
65
70
64
2
CONTINUOUS
3
______
73
0
40
0
0
ENDTAB
0
TABLE
2
LAYER
0
LAYER
2
DEFAULT_255_2_778
70
0
62
255
6
CONTINUOUS
0
LAYER
2
DEFAULT_4_2_778
70
0
62
4
6
CONTINUOUS
0
ENDTAB
0
ENDSEC
0
SECTION
2
ENTITIES
0
LINE
8
DEFAULT_255_2_778
10
45.8886706
20
22.3242181
11
45.8886706
21
-2.4804687
0
LINE
8
DEFAULT_255_2_778
10
45.8886706
20
34.7265615
11
45.8886706
21
59.5312483
0
LINE
8
DEFAULT_255_2_778
10
33.4863272
20
34.7265615
11
58.291014
21
34.7265615
0
LINE
8
DEFAULT_255_2_778
10
58.291014
20
34.7265615
11
58.291014
21
22.3242181
0
LINE
8
DEFAULT_255_2_778
10
58.291014
20
22.3242181
11
33.4863272
21
22.3242181
0
LINE
8
DEFAULT_255_2_778
10
33.4863272
20
22.3242181
11
33.4863272
21
34.7265615
0
ARC
8
0
10
27.3558844
20
28.5294593
40
6.2719019
50
168.1624161
51
180.0371759
0
ARC
8
0
10
27.2479546
20
28.5499887
40
6.1620564
50
151.8357285
51
168.1433762
0
ARC
8
0
10
27.2754205
20
28.5343819
40
6.1936368
50
109.8829518
51
151.8283736
0
ARC
8
0
10
27.2676903
20
28.5380322
40
6.1875779
50
96.2170381
51
109.8271349
0
ARC
8
0
10
27.2838113
20
28.4029589
40
6.3236028
50
89.9878208
51
96.2297087
0
ARC
8
0
10
27.2892261
20
28.4546756
40
6.2718873
50
78.1623932
51
90.0371863
0
ARC
8
0
10
27.3097544
20
28.5625904
40
6.1620568
50
61.8357214
51
78.1433717
0
ARC
8
0
10
27.2941471
20
28.5351246
40
6.1936373
50
19.882945
51
61.828362
0
ARC
8
0
10
27.2977881
20
28.5428526
40
6.1875878
50
6.2170476
51
19.8271179
0
ARC
8
0
10
27.1627315
20
28.526734
40
6.3235959
50
359.9878209
51
6.2297124
0
ARC
8
0
10
27.2144266
20
28.5213204
40
6.2719019
50
348.1624161
51
0.0371759
0
ARC
8
0
10
27.3223564
20
28.5007909
40
6.1620564
50
331.8357285
51
348.1433762
0
ARC
8
0
10
27.2948905
20
28.5163978
40
6.1936368
50
289.8829518
51
331.8283736
0
ARC
8
0
10
27.3026207
20
28.5127475
40
6.1875779
50
276.2170381
51
289.8271349
0
ARC
8
0
10
27.2864997
20
28.6478208
40
6.3236028
50
269.9878208
51
276.2297087
0
ARC
8
0
10
27.2810849
20
28.5961041
40
6.2718873
50
258.1623932
51
270.0371863
0
ARC
8
0
10
27.2605566
20
28.4881893
40
6.1620568
50
241.8357214
51
258.1433717
0
ARC
8
0
10
27.2761639
20
28.5156551
40
6.1936373
50
199.882945
51
241.828362
0
ARC
8
0
10
27.2725229
20
28.5079271
40
6.1875878
50
186.2170476
51
199.8271179
0
ARC
8
0
10
27.4075794
20
28.5240456
40
6.3235959
50
179.9878209
51
186.2297124
0
LINE
8
DEFAULT_255_2_778
10
21.0839838
20
28.5253898
11
21.0839838
21
28.5253898
0
LINE
8
DEFAULT_255_2_778
10
21.704101
20
31.0058585
11
32.86621
21
31.0058585
0
LINE
8
DEFAULT_255_2_778
10
21.704101
20
26.0449212
11
32.86621
21
26.0449212
0
LINE
8
DEFAULT_4_2_778
10
42.7880847
20
59.5312483
11
48.9892564
21
59.5312483
0
LINE
8
DEFAULT_4_2_778
10
45.8886706
20
62.6318408
11
45.8886706
21
59.531255
0
LINE
8
DEFAULT_4_2_778
10
42.7880847
20
-2.4804621
11
48.9892564
21
-2.4804621
0
LINE
8
DEFAULT_4_2_778
10
45.8886706
20
-2.4804753
11
45.8886706
21
-5.5810611
0
ENDSEC
0
EOF