0
SECTION
2
HEADER
0
ENDSEC
0
SECTION
2
TABLES
0
TABLE
2
LTYPE
0
LTYPE
72
65
70
64
2
CONTINUOUS
3
______
73
0
40
0
0
ENDTAB
0
TABLE
2
LAYER
0
LAYER
2
DEFAULT_255_2_778
70
0
62
255
6
CONTINUOUS
0
ENDTAB
0
ENDSEC
0
SECTION
2
ENTITIES
0
LINE
8
0
10
27.1301229
20
14.2626817
11
36.5869097
21
14.2626817
0
ARC
8
0
10
48.9968234
20
14.2744579
40
12.4099192
50
176.9452382
51
180.0543699
0
ARC
8
0
10
46.5410317
20
14.4076409
40
9.95052
50
173.2361353
51
176.9574662
0
ARC
8
0
10
44.4665035
20
14.6564329
40
7.8611289
50
168.6392575
51
173.2560134
0
ARC
8
0
10
42.7579453
20
15.0026382
40
6.1178507
50
162.83533
51
168.666046
0
ARC
8
0
10
41.4360676
20
15.4132857
40
4.7336593
50
155.5271398
51
162.8625189
0
ARC
8
0
10
40.4799112
20
15.8518094
40
3.6817438
50
145.6107378
51
155.5742353
0
ARC
8
0
10
39.8629119
20
16.2802468
40
2.9306017
50
128.6040909
51
145.7097827
0
ARC
8
0
10
39.7954679
20
16.3338752
40
2.8466767
50
107.422161
51
128.2167345
0
ARC
8
0
10
40.0172274
20
15.6534514
40
3.5622913
50
96.9212451
51
107.5485921
0
ARC
8
0
10
40.1415308
20
14.680055
40
4.5435775
50
89.8606224
51
96.9981479
0
ARC
8
0
10
40.1656799
20
13.8866002
40
5.3370349
50
83.2811272
51
90.1405975
0
ARC
8
0
10
40.3050267
20
15.0451726
40
4.1701171
50
74.2474799
51
83.3201371
0
ARC
8
0
10
40.5401722
20
15.864263
40
3.3179534
50
60.4789315
51
74.3156082
0
ARC
8
0
10
40.6679505
20
16.1202692
40
3.0322583
50
34.3244863
51
60.1963313
0
ARC
8
0
10
40.0611568
20
15.689863
40
3.7761038
50
24.1872345
51
34.5262283
0
ARC
8
0
10
39.131529
20
15.2684207
40
4.7967956
50
16.6076401
51
24.2297282
0
ARC
8
0
10
37.8364394
20
14.8789085
40
6.1491894
50
10.6374285
51
16.6365806
0
ARC
8
0
10
36.2110234
20
14.5687646
40
7.8039245
50
6.1275252
51
10.6724709
0
ARC
8
0
10
34.2075604
20
14.3528254
40
9.818991
50
2.1212274
51
6.132499
0
ARC
8
0
10
32.1936697
20
14.2679634
40
11.8346472
50
359.9744291
51
2.1709084
0
LINE
8
0
10
44.0283158
20
14.2626817
11
53.175044
21
14.2626817
0
LINE
8
DEFAULT_255_2_778
10
26.6650383
20
17.3632675
11
26.6650383
21
11.1620958
0
LINE
8
DEFAULT_255_2_778
10
52.7099595
20
17.3632675
11
52.7099595
21
11.1620958
0
LINE
8
DEFAULT_255_2_778
10
26.6650383
20
14.2626817
11
23.5644525
21
14.2626817
0
LINE
8
DEFAULT_255_2_778
10
52.7099595
20
14.2626817
11
55.8105453
21
14.2626817
0
ENDSEC
0
EOF