0
SECTION
2
HEADER
0
ENDSEC
0
SECTION
2
TABLES
0
TABLE
2
LTYPE
0
LTYPE
72
65
70
64
2
CONTINUOUS
3
______
73
0
40
0
0
ENDTAB
0
TABLE
2
LAYER
0
LAYER
2
DEFAULT_255_2_778
70
0
62
255
6
CONTINUOUS
0
LAYER
2
DEFAULT_4_2_778
70
0
62
4
6
CONTINUOUS
0
ENDTAB
0
ENDSEC
0
SECTION
2
ENTITIES
0
LINE
8
DEFAULT_255_2_778
10
27.2851555
20
-2.4804819
11
27.2851555
21
16.1230332
0
LINE
8
DEFAULT_255_2_778
10
27.2851555
20
16.1230332
11
31.0058585
21
11.1620958
0
LINE
8
DEFAULT_255_2_778
10
52.0898423
20
-2.4804819
11
52.0898423
21
16.1230332
0
LINE
8
DEFAULT_255_2_778
10
52.0898423
20
16.1230332
11
44.6484363
21
16.1230332
0
LINE
8
DEFAULT_255_2_778
10
52.0898555
20
59.5312616
11
52.0898555
21
40.9277465
0
LINE
8
DEFAULT_255_2_778
10
52.0898555
20
40.9277465
11
45.8886838
21
11.1621223
0
LINE
8
DEFAULT_4_2_778
10
48.9892564
20
59.5312483
11
55.1904282
21
59.5312483
0
LINE
8
DEFAULT_4_2_778
10
52.0898423
20
62.6318408
11
52.0898423
21
59.531255
0
LINE
8
DEFAULT_4_2_778
10
48.9892564
20
-2.4804621
11
55.1904282
21
-2.4804621
0
LINE
8
DEFAULT_4_2_778
10
52.0898357
20
-2.4804753
11
52.0898357
21
-5.5810611
0
LINE
8
DEFAULT_4_2_778
10
24.184563
20
-2.4804753
11
30.3857347
21
-2.4804753
0
LINE
8
DEFAULT_4_2_778
10
27.2851555
20
-2.4804753
11
27.2851555
21
-5.5810611
0
ENDSEC
0
EOF