0
SECTION
2
HEADER
0
ENDSEC
0
SECTION
2
TABLES
0
TABLE
2
LTYPE
0
LTYPE
72
65
70
64
2
CONTINUOUS
3
______
73
0
40
0
0
ENDTAB
0
TABLE
2
LAYER
0
LAYER
2
DEFAULT_255_2_778
70
0
62
255
6
CONTINUOUS
0
LAYER
2
DEFAULT_4_2_778
70
0
62
4
6
CONTINUOUS
0
ENDTAB
0
ENDSEC
0
SECTION
2
ENTITIES
0
LINE
8
DEFAULT_255_2_778
10
39.6874989
20
22.3242181
11
39.6874989
21
-2.4804687
0
LINE
8
DEFAULT_255_2_778
10
39.6874989
20
34.7265615
11
39.6874989
21
59.5312483
0
LINE
8
DEFAULT_255_2_778
10
27.2851555
20
34.7265615
11
52.0898423
21
34.7265615
0
LINE
8
DEFAULT_255_2_778
10
52.0898423
20
34.7265615
11
52.0898423
21
22.3242181
0
LINE
8
DEFAULT_255_2_778
10
52.0898423
20
22.3242181
11
27.2851555
21
22.3242181
0
LINE
8
DEFAULT_255_2_778
10
27.2851555
20
22.3242181
11
27.2851555
21
34.7265615
0
ARC
8
0
10
39.7344548
20
28.5293741
40
5.0078949
50
166.5592906
51
180.0455847
0
ARC
8
0
10
39.6587897
20
28.5448151
40
4.9307137
50
146.7406924
51
166.5294325
0
ARC
8
0
10
39.6791492
20
28.5332941
40
4.9540568
50
109.9894059
51
146.75841
0
ARC
8
0
10
39.6746521
20
28.5314869
40
4.9542203
50
94.9905009
51
109.9333855
0
ARC
8
0
10
39.6867761
20
28.416726
40
5.0696011
50
89.9918309
51
95.0141771
0
ARC
8
0
10
39.6914836
20
28.478416
40
5.0079127
50
76.5593138
51
90.0455892
0
ARC
8
0
10
39.7069304
20
28.5541041
40
4.9307079
50
56.740686
51
76.52946
0
ARC
8
0
10
39.695411
20
28.5337479
40
4.9540475
50
19.9893426
51
56.7583984
0
ARC
8
0
10
39.6935853
20
28.538238
40
4.9542306
50
4.9904745
51
19.9333253
0
ARC
8
0
10
39.5788351
20
28.5261126
40
5.0696012
50
359.9918309
51
5.0141771
0
ARC
8
0
10
39.640543
20
28.5214039
40
5.0078948
50
346.5593103
51
0.0456039
0
ARC
8
0
10
39.7162107
20
28.5059594
40
4.9307104
50
326.7407393
51
346.5294852
0
ARC
8
0
10
39.6958582
20
28.5174749
40
4.9540447
50
289.9893787
51
326.7584649
0
ARC
8
0
10
39.7003473
20
28.5193032
40
4.9542306
50
274.9904854
51
289.933362
0
ARC
8
0
10
39.6882219
20
28.634074
40
5.0696215
50
269.9918291
51
275.0141684
0
ARC
8
0
10
39.6835146
20
28.5723458
40
5.0078949
50
256.5592906
51
270.0455847
0
ARC
8
0
10
39.6680737
20
28.4966806
40
4.9307137
50
236.7406924
51
256.5294325
0
ARC
8
0
10
39.6795946
20
28.5170401
40
4.9540568
50
199.9894059
51
236.75841
0
ARC
8
0
10
39.6814018
20
28.512543
40
4.9542203
50
184.9905009
51
199.9333855
0
ARC
8
0
10
39.7961627
20
28.524667
40
5.0696011
50
179.9918309
51
185.0141771
0
LINE
8
DEFAULT_255_2_778
10
34.7265615
20
28.5253898
11
34.7265615
21
28.5253898
0
LINE
8
DEFAULT_255_2_778
10
39.6874989
20
31.0058585
11
39.6874989
21
28.5253898
0
LINE
8
DEFAULT_255_2_778
10
39.6874989
20
28.5253898
11
37.2070302
21
28.5253898
0
LINE
8
DEFAULT_4_2_778
10
36.586913
20
59.5312483
11
42.7880847
21
59.5312483
0
LINE
8
DEFAULT_4_2_778
10
39.6874989
20
62.6318408
11
39.6874989
21
59.531255
0
LINE
8
DEFAULT_4_2_778
10
36.586913
20
-2.4804621
11
42.7880847
21
-2.4804621
0
LINE
8
DEFAULT_4_2_778
10
39.6874989
20
-2.4804753
11
39.6874989
21
-5.5810611
0
ENDSEC
0
EOF