0
SECTION
2
HEADER
0
ENDSEC
0
SECTION
2
TABLES
0
TABLE
2
LTYPE
0
LTYPE
72
65
70
64
2
CONTINUOUS
3
______
73
0
40
0
0
ENDTAB
0
TABLE
2
LAYER
0
LAYER
2
DEFAULT_255_2_778
70
0
62
255
6
CONTINUOUS
0
LAYER
2
DEFAULT_4_2_778
70
0
62
4
6
CONTINUOUS
0
ENDTAB
0
ENDSEC
0
SECTION
2
ENTITIES
0
ARC
8
0
10
37.5027167
20
28.4949786
40
6.2004222
50
251.5615667
51
264.3935318
0
ARC
8
0
10
37.4940975
20
28.4596188
40
6.1641522
50
232.4999525
51
251.5336154
0
ARC
8
0
10
37.5152303
20
28.4921289
40
6.2028096
50
198.52991
51
232.5278963
0
ARC
8
0
10
37.4805857
20
28.4744587
40
6.1643481
50
184.0635938
51
198.4765202
0
ARC
8
0
10
37.5702517
20
28.4824336
40
6.2543542
50
179.9959834
51
184.0782587
0
ARC
8
0
10
37.6715832
20
28.4828706
40
6.3556858
50
179.8850097
51
179.9999874
0
ARC
8
0
10
37.6715751
20
28.5083818
40
6.3556776
50
180.0000126
51
180.1149903
0
ARC
8
0
10
37.5150954
20
28.5114479
40
6.1991988
50
167.1982203
51
180.0283511
0
ARC
8
0
10
37.4805682
20
28.516218
40
6.1644737
50
148.1405941
51
167.1703462
0
ARC
8
0
10
37.5145867
20
28.4987194
40
6.2026043
50
114.1812333
51
148.1691736
0
ARC
8
0
10
37.4937897
20
28.5309109
40
6.1647213
50
99.7382379
51
114.1274596
0
ARC
8
0
10
37.5108168
20
28.4412471
40
6.2559735
50
95.6310679
51
99.7530328
0
ARC
8
0
10
25.1291116
20
28.4938142
40
6.2003904
50
71.5617054
51
84.3935722
0
ARC
8
0
10
25.1377204
20
28.5291354
40
6.1641603
50
52.5002516
51
71.5337771
0
ARC
8
0
10
25.1166094
20
28.4966516
40
6.2027835
50
18.5299693
51
52.5282052
0
ARC
8
0
10
25.1511663
20
28.5142934
40
6.1644143
50
4.0635685
51
18.4765725
0
ARC
8
0
10
25.0614436
20
28.5063076
40
6.2544775
50
359.9960053
51
4.0782957
0
ARC
8
0
10
24.9644301
20
28.5058727
40
6.3514909
50
359.8963155
51
359.9999893
0
ARC
8
0
10
24.9602376
20
28.4816233
40
6.3556856
50
0.0000126
51
0.1149903
0
ARC
8
0
10
25.1167178
20
28.478555
40
6.1992064
50
347.198244
51
0.0283707
0
ARC
8
0
10
25.1512573
20
28.4737799
40
6.1644681
50
328.1406212
51
347.1703901
0
ARC
8
0
10
25.1172453
20
28.4912755
40
6.2025918
50
294.1811965
51
328.169193
0
ARC
8
0
10
25.1380303
20
28.4591106
40
6.164738
50
279.7382261
51
294.1274224
0
ARC
8
0
10
25.1210029
20
28.54878
40
6.2559956
50
275.6310579
51
279.7530153
0
LINE
8
DEFAULT_255_2_778
10
50.5395428
20
59.5300018
11
50.5395428
21
40.9264907
0
LINE
8
DEFAULT_255_2_778
10
44.3383711
20
40.9264907
11
50.5395428
21
16.1218019
0
LINE
8
DEFAULT_255_2_778
10
50.5395428
20
16.1218019
11
50.5395428
21
-2.4817092
0
LINE
8
DEFAULT_255_2_778
10
31.9360277
20
26.0436766
11
48.0590741
21
26.0436766
0
LINE
8
DEFAULT_255_2_778
10
46.8188397
20
31.0058585
11
31.9360277
21
31.0058585
0
LINE
8
DEFAULT_4_2_778
10
47.4389569
20
59.5312483
11
53.6401286
21
59.5312483
0
LINE
8
DEFAULT_4_2_778
10
50.5395428
20
62.6318408
11
50.5395428
21
59.531255
0
LINE
8
DEFAULT_4_2_778
10
47.4389569
20
-2.4804621
11
53.6401286
21
-2.4804621
0
LINE
8
DEFAULT_4_2_778
10
50.5395428
20
-2.4804753
11
50.5395428
21
-5.5810611
0
ENDSEC
0
EOF