0
SECTION
2
HEADER
0
ENDSEC
0
SECTION
2
TABLES
0
TABLE
2
LTYPE
0
LTYPE
72
65
70
64
2
CONTINUOUS
3
______
73
0
40
0
0
ENDTAB
0
TABLE
2
LAYER
0
LAYER
2
DEFAULT_255_2_778
70
0
62
255
6
CONTINUOUS
0
LAYER
2
DEFAULT_4_2_778
70
0
62
4
6
CONTINUOUS
0
ENDTAB
0
ENDSEC
0
SECTION
2
ENTITIES
0
LINE
8
DEFAULT_255_2_778
10
27.2851555
20
-2.4804819
11
27.2851555
21
16.1230332
0
LINE
8
DEFAULT_255_2_778
10
52.0898423
20
-2.4804819
11
52.0898423
21
16.1230332
0
LINE
8
DEFAULT_255_2_778
10
52.0898423
20
16.1230332
11
44.6484363
21
16.1230332
0
LINE
8
DEFAULT_255_2_778
10
52.0898357
20
59.5312616
11
52.0898357
21
40.9277465
0
LINE
8
DEFAULT_255_2_778
10
52.0898357
20
40.9277465
11
46.0436933
21
11.1621223
0
LINE
8
DEFAULT_255_2_778
10
49.2993084
20
27.2851687
11
34.1064377
21
27.2851687
0
LINE
8
DEFAULT_255_2_778
10
49.9194421
20
31.0058585
11
34.1064543
21
31.0058585
0
ARC
8
0
10
27.2819565
20
30.6576719
40
5.3091117
50
86.8710798
51
89.965334
0
ARC
8
0
10
27.2454045
20
29.9833374
40
5.9844359
50
83.793137
51
86.8740432
0
ARC
8
0
10
27.1793512
20
29.3715711
40
6.5997578
50
80.7424391
51
83.7972796
0
ARC
8
0
10
27.0973738
20
28.8658358
40
7.1120939
50
77.6419329
51
80.7460591
0
ARC
8
0
10
27.0155125
20
28.4902419
40
7.4965051
50
74.3531499
51
77.645145
0
ARC
8
0
10
26.9535141
20
28.2668691
40
7.7283217
50
70.8065867
51
74.357186
0
ARC
8
0
10
26.9327208
20
28.205272
40
7.7933308
50
67.9976225
51
70.8110942
0
ARC
8
0
10
26.9775922
20
28.310488
40
7.6789674
50
61.4639406
51
68.0139229
0
ARC
8
0
10
27.1905494
20
28.6941406
40
7.2401912
50
53.0265751
51
61.4940997
0
ARC
8
0
10
27.5414364
20
29.1586899
40
6.6580169
50
43.4608799
51
53.0345623
0
ARC
8
0
10
27.8408281
20
29.4467616
40
6.2425533
50
34.3670363
51
43.4319144
0
ARC
8
0
10
27.9461164
20
29.522203
40
6.1130588
50
26.2880645
51
34.3404388
0
ARC
8
0
10
27.8376617
20
29.4704644
40
6.2332114
50
19.1129993
51
26.2729421
0
ARC
8
0
10
27.536532
20
29.3667389
40
6.5517041
50
12.933197
51
19.1078214
0
ARC
8
0
10
27.0616295
20
29.2581267
40
7.0388683
50
7.3153416
51
12.9296702
0
ARC
8
0
10
26.4431982
20
29.1779212
40
7.6624782
50
2.6683528
51
7.3213805
0
ARC
8
0
10
25.8543481
20
29.1474361
40
8.2521096
50
359.9865143
51
2.6894487
0
ARC
8
0
10
26.0062996
20
29.1404219
40
8.1001596
50
355.550945
51
0.0358757
0
ARC
8
0
10
26.7161121
20
29.0846716
40
7.3881614
50
350.3643125
51
355.5549796
0
ARC
8
0
10
27.280175
20
28.9890896
40
6.8160573
50
344.6376362
51
350.362791
0
ARC
8
0
10
27.6858248
20
28.877722
40
6.3953977
50
337.8860731
51
344.6369425
0
ARC
8
0
10
27.911099
20
28.7873752
40
6.1526843
50
330.2122025
51
337.8757953
0
ARC
8
0
10
27.9260209
20
28.7813223
40
6.1367274
50
321.7473818
51
330.1920362
0
ARC
8
0
10
27.7253912
20
28.9440724
40
6.3950441
50
312.1906423
51
321.7152173
0
ARC
8
0
10
27.3774096
20
29.3304936
40
6.9150535
50
302.9864116
51
312.1765925
0
ARC
8
0
10
27.0708641
20
29.7976702
40
7.4738173
50
295.2645711
51
303.0077281
0
ARC
8
0
10
26.9519014
20
30.0392497
40
7.7430633
50
291.9995999
51
295.2977045
0
ARC
8
0
10
26.9338326
20
30.0828276
40
7.7902367
50
288.1615659
51
292.0027537
0
ARC
8
0
10
26.9655107
20
29.9846936
40
7.6871177
50
284.9349109
51
288.1652048
0
ARC
8
0
10
27.0293058
20
29.7438389
40
7.4379579
50
281.8772665
51
284.9382495
0
ARC
8
0
10
27.1106977
20
29.3538719
40
7.0395882
50
278.7554721
51
281.882248
0
ARC
8
0
10
27.1918382
20
28.8243693
40
6.503905
50
275.6863661
51
278.7590375
0
ARC
8
0
10
27.2539932
20
28.196117
40
5.8725857
50
272.598106
51
275.6902686
0
ARC
8
0
10
27.2829693
20
27.5732315
40
5.2490272
50
270.0240074
51
272.5903454
0
ARC
8
0
10
40.9309587
20
30.6576719
40
5.3091117
50
90.034666
51
93.1289202
0
ARC
8
0
10
40.9675107
20
29.9833374
40
5.9844359
50
93.1259568
51
96.206863
0
ARC
8
0
10
41.033564
20
29.3715711
40
6.5997578
50
96.2027204
51
99.2575609
0
ARC
8
0
10
41.1155414
20
28.8658358
40
7.1120939
50
99.2539409
51
102.3580671
0
ARC
8
0
10
41.1974027
20
28.4902419
40
7.4965051
50
102.354855
51
105.6468501
0
ARC
8
0
10
41.2594011
20
28.2668691
40
7.7283217
50
105.642814
51
109.1934133
0
ARC
8
0
10
41.2801943
20
28.205272
40
7.7933308
50
109.1889058
51
112.0023775
0
ARC
8
0
10
41.235323
20
28.310488
40
7.6789674
50
111.9860771
51
118.5360594
0
ARC
8
0
10
41.0223658
20
28.6941406
40
7.2401912
50
118.5059003
51
126.9734249
0
ARC
8
0
10
40.6714788
20
29.1586899
40
6.6580169
50
126.9654377
51
136.5391201
0
ARC
8
0
10
40.3720871
20
29.4467616
40
6.2425533
50
136.5680856
51
145.6329637
0
ARC
8
0
10
40.2667988
20
29.522203
40
6.1130588
50
145.6595612
51
153.7119355
0
ARC
8
0
10
40.3752535
20
29.4704644
40
6.2332114
50
153.7270579
51
160.8870007
0
ARC
8
0
10
40.6763832
20
29.3667389
40
6.5517041
50
160.8921786
51
167.066803
0
ARC
8
0
10
41.1512857
20
29.2581267
40
7.0388683
50
167.0703298
51
172.6846584
0
ARC
8
0
10
41.7697169
20
29.1779212
40
7.6624782
50
172.6786195
51
177.3316472
0
ARC
8
0
10
42.3585671
20
29.1474361
40
8.2521096
50
177.3105513
51
180.0134857
0
ARC
8
0
10
42.2066156
20
29.1404219
40
8.1001596
50
179.9641243
51
184.449055
0
ARC
8
0
10
41.4968031
20
29.0846716
40
7.3881614
50
184.4450204
51
189.6356875
0
ARC
8
0
10
40.9327401
20
28.9890896
40
6.8160573
50
189.637209
51
195.3623638
0
ARC
8
0
10
40.5270904
20
28.877722
40
6.3953977
50
195.3630575
51
202.1139269
0
ARC
8
0
10
40.3018162
20
28.7873752
40
6.1526843
50
202.1242047
51
209.7877975
0
ARC
8
0
10
40.2868942
20
28.7813223
40
6.1367274
50
209.8079638
51
218.2526182
0
ARC
8
0
10
40.4875239
20
28.9440724
40
6.3950441
50
218.2847827
51
227.8093577
0
ARC
8
0
10
40.8355056
20
29.3304936
40
6.9150535
50
227.8234075
51
237.0135884
0
ARC
8
0
10
41.1420511
20
29.7976702
40
7.4738173
50
236.9922719
51
244.7354289
0
ARC
8
0
10
41.2610138
20
30.0392497
40
7.7430633
50
244.7022955
51
248.0004001
0
ARC
8
0
10
41.2790826
20
30.0828276
40
7.7902367
50
247.9972463
51
251.8384341
0
ARC
8
0
10
41.2474045
20
29.9846936
40
7.6871177
50
251.8347952
51
255.0650891
0
ARC
8
0
10
41.1836094
20
29.7438389
40
7.4379579
50
255.0617505
51
258.1227335
0
ARC
8
0
10
41.1022175
20
29.3538719
40
7.0395882
50
258.117752
51
261.2445279
0
ARC
8
0
10
41.021077
20
28.8243693
40
6.503905
50
261.2409625
51
264.3136339
0
ARC
8
0
10
40.958922
20
28.196117
40
5.8725857
50
264.3097314
51
267.401894
0
ARC
8
0
10
40.9299459
20
27.5732315
40
5.2490272
50
267.4096546
51
269.9759926
0
LINE
8
DEFAULT_4_2_778
10
48.9892564
20
59.5312483
11
55.1904282
21
59.5312483
0
LINE
8
DEFAULT_4_2_778
10
52.0898423
20
62.6318408
11
52.0898423
21
59.531255
0
LINE
8
DEFAULT_4_2_778
10
48.9892564
20
-2.4804621
11
55.1904282
21
-2.4804621
0
LINE
8
DEFAULT_4_2_778
10
52.0898357
20
-2.4804753
11
52.0898357
21
-5.5810611
0
LINE
8
DEFAULT_4_2_778
10
24.184563
20
-2.4804753
11
30.3857347
21
-2.4804753
0
LINE
8
DEFAULT_4_2_778
10
27.2851555
20
-2.4804753
11
27.2851555
21
-5.5810611
0
ENDSEC
0
EOF