0
SECTION
2
HEADER
0
ENDSEC
0
SECTION
2
TABLES
0
TABLE
2
LTYPE
0
LTYPE
72
65
70
64
2
CONTINUOUS
3
______
73
0
40
0
0
LTYPE
72
65
70
64
2
DASH_DEFAULT_255_2_778_064_085
3
______
73
2
40
2
49
-0.19921568073322585
49
0.2645833259738156
0
ENDTAB
0
TABLE
2
LAYER
0
LAYER
2
DEFAULT_255_2_778
70
0
62
255
6
CONTINUOUS
0
LAYER
2
DEFAULT_255_2_778_064_085
70
0
62
255
6
DASH_DEFAULT_255_2_778_064_085
0
LAYER
2
DEFAULT_4_2_778
70
0
62
4
6
CONTINUOUS
0
ENDTAB
0
ENDSEC
0
SECTION
2
ENTITIES
0
LINE
8
DEFAULT_255_2_778
10
52.7099727
20
40.92772
11
42.788098
21
16.1230332
0
LINE
8
DEFAULT_255_2_778
10
42.788098
20
16.1230332
11
42.788098
21
-2.4804819
0
LINE
8
DEFAULT_255_2_778
10
42.7880847
20
59.5312483
11
42.7880847
21
37.2070302
0
LINE
8
DEFAULT_255_2_778
10
42.7880847
20
37.2070302
11
55.1904282
21
37.2070302
0
LINE
8
DEFAULT_255_2_778
10
24.1845696
20
34.7265615
11
24.1845696
21
22.3242181
0
LINE
8
DEFAULT_255_2_778_064_085
10
47.1288983
20
28.5253898
11
36.5869064
21
28.5253898
0
LINE
8
DEFAULT_255_2_778_064_085
10
24.184563
20
28.5253898
11
30.3857347
21
28.5253898
0
LINE
8
DEFAULT_255_2_778
10
36.586913
20
28.5253766
11
33.4863272
21
22.3242049
0
LINE
8
DEFAULT_255_2_778
10
33.4863272
20
22.3242049
11
30.3857413
21
28.5253766
0
LINE
8
DEFAULT_4_2_778
10
39.6875121
20
59.5312483
11
45.8886838
21
59.5312483
0
LINE
8
DEFAULT_4_2_778
10
42.788098
20
62.6318408
11
42.788098
21
59.531255
0
LINE
8
DEFAULT_4_2_778
10
39.6875121
20
-2.4804621
11
45.8886838
21
-2.4804621
0
LINE
8
DEFAULT_4_2_778
10
42.788098
20
-2.4804753
11
42.788098
21
-5.5810611
0
ENDSEC
0
EOF