0
SECTION
2
HEADER
0
ENDSEC
0
SECTION
2
TABLES
0
TABLE
2
LTYPE
0
LTYPE
72
65
70
64
2
CONTINUOUS
3
______
73
0
40
0
0
LTYPE
72
65
70
64
2
DASH_DEFAULT_255_2_778_064_085
3
______
73
2
40
2
49
-0.19921568073322585
49
0.2645833259738156
0
ENDTAB
0
TABLE
2
LAYER
0
LAYER
2
DEFAULT_255_2_778
70
0
62
255
6
CONTINUOUS
0
LAYER
2
DEFAULT_255_2_778_064_085
70
0
62
255
6
DASH_DEFAULT_255_2_778_064_085
0
LAYER
2
DEFAULT_4_2_778
70
0
62
4
6
CONTINUOUS
0
ENDTAB
0
ENDSEC
0
SECTION
2
ENTITIES
0
LINE
8
DEFAULT_255_2_778
10
50.5395428
20
59.5312483
11
50.5395428
21
40.9277332
0
LINE
8
DEFAULT_255_2_778
10
44.3383711
20
40.9277332
11
50.5395428
21
16.1230464
0
LINE
8
DEFAULT_255_2_778
10
50.5395428
20
16.1230464
11
50.5395428
21
-2.4804687
0
LINE
8
DEFAULT_255_2_778
10
29.455559
20
34.7265615
11
25.734856
21
34.7265615
0
LINE
8
DEFAULT_255_2_778
10
25.734856
20
34.7265615
11
25.734856
21
22.3242181
0
LINE
8
DEFAULT_255_2_778
10
25.734856
20
22.3242181
11
29.455559
21
22.3242181
0
LINE
8
DEFAULT_255_2_778_064_085
10
47.4389768
20
28.5253898
11
38.1372192
21
28.5253898
0
LINE
8
DEFAULT_255_2_778_064_085
10
25.7348758
20
28.5253898
11
31.9360475
21
28.5253898
0
LINE
8
DEFAULT_255_2_778
10
38.1372126
20
28.5253766
11
35.0366267
21
22.3242049
0
LINE
8
DEFAULT_255_2_778
10
35.0366267
20
22.3242049
11
31.9360409
21
28.5253766
0
LINE
8
DEFAULT_4_2_778
10
47.4389569
20
59.5312483
11
53.6401286
21
59.5312483
0
LINE
8
DEFAULT_4_2_778
10
50.5395428
20
62.6318408
11
50.5395428
21
59.531255
0
LINE
8
DEFAULT_4_2_778
10
47.4389569
20
-2.4804621
11
53.6401286
21
-2.4804621
0
LINE
8
DEFAULT_4_2_778
10
50.5395428
20
-2.4804753
11
50.5395428
21
-5.5810611
0
ENDSEC
0
EOF