0
SECTION
2
HEADER
0
ENDSEC
0
SECTION
2
TABLES
0
TABLE
2
LTYPE
0
LTYPE
72
65
70
64
2
CONTINUOUS
3
______
73
0
40
0
0
ENDTAB
0
TABLE
2
LAYER
0
LAYER
2
DEFAULT_255_2_778
70
0
62
255
6
CONTINUOUS
0
LAYER
2
DEFAULT_4_2_778
70
0
62
4
6
CONTINUOUS
0
ENDTAB
0
ENDSEC
0
SECTION
2
ENTITIES
0
LINE
8
DEFAULT_255_2_778
10
8.6816404
20
-26.6646271
11
32.2460929
21
-26.6646271
0
LINE
8
DEFAULT_255_2_778
10
32.2460929
20
-26.6646271
11
33.4863272
21
-22.943924
0
LINE
8
DEFAULT_255_2_778
10
33.4863272
20
-22.943924
11
35.9667959
21
-30.3853301
0
LINE
8
DEFAULT_255_2_778
10
35.9667959
20
-30.3853301
11
38.4472646
21
-22.943924
0
LINE
8
DEFAULT_255_2_778
10
38.4472646
20
-22.943924
11
40.9277332
21
-30.3853301
0
LINE
8
DEFAULT_255_2_778
10
40.9277332
20
-30.3853301
11
43.4082019
21
-22.943924
0
LINE
8
DEFAULT_255_2_778
10
43.4082019
20
-22.943924
11
45.8886706
21
-30.3853301
0
LINE
8
DEFAULT_255_2_778
10
45.8886706
20
-30.3853301
11
47.1289049
21
-26.6646271
0
LINE
8
DEFAULT_255_2_778
10
47.1289049
20
-26.6646271
11
70.6933574
21
-26.6646271
0
LINE
8
DEFAULT_255_2_778
10
38.4480876
20
-16.7439785
11
35.9682246
21
-20.4643121
0
LINE
8
DEFAULT_255_2_778
10
35.9682246
20
-20.4643121
11
35.9678249
21
-16.1243317
0
LINE
8
DEFAULT_255_2_778
10
35.9678249
20
-16.1243317
11
38.4480876
21
-16.7439785
0
LINE
8
DEFAULT_255_2_778
10
37.1847684
20
-15.9885893
11
38.4464283
21
-11.7809631
0
LINE
8
DEFAULT_255_2_778
10
43.409027
20
-16.7439785
11
40.9291639
21
-20.4643121
0
LINE
8
DEFAULT_255_2_778
10
40.9291639
20
-20.4643121
11
40.9287602
21
-16.1243317
0
LINE
8
DEFAULT_255_2_778
10
40.9287602
20
-16.1243317
11
43.409027
21
-16.7439785
0
LINE
8
DEFAULT_255_2_778
10
42.3204931
20
-15.9904662
11
43.4077854
21
-11.7834253
0
LINE
8
DEFAULT_4_2_778
10
8.6816404
20
-24.1841584
11
8.6816404
21
-29.1450957
0
LINE
8
DEFAULT_4_2_778
10
6.2011717
20
-26.6646271
11
8.6816404
21
-26.6646271
0
LINE
8
DEFAULT_4_2_778
10
70.6933574
20
-29.1450957
11
70.6933574
21
-24.1841584
0
LINE
8
DEFAULT_4_2_778
10
73.1738261
20
-26.6646271
11
70.6933574
21
-26.6646271
0
ENDSEC
0
EOF