0
SECTION
2
HEADER
0
ENDSEC
0
SECTION
2
TABLES
0
TABLE
2
LTYPE
0
LTYPE
72
65
70
64
2
CONTINUOUS
3
______
73
0
40
0
0
ENDTAB
0
TABLE
2
LAYER
0
LAYER
2
DEFAULT_255_2_778
70
0
62
255
6
CONTINUOUS
0
LAYER
2
DEFAULT_4_2_778
70
0
62
4
6
CONTINUOUS
0
ENDTAB
0
ENDSEC
0
SECTION
2
ENTITIES
0
LINE
8
DEFAULT_255_2_778
10
33.4863272
20
-21.0839838
11
33.4863272
21
-33.4863272
0
LINE
8
DEFAULT_255_2_778
10
33.4863272
20
-33.4863272
11
45.8886706
21
-27.2851555
0
LINE
8
DEFAULT_255_2_778
10
45.8886706
20
-27.2851555
11
33.4863272
21
-21.0839838
0
LINE
8
DEFAULT_255_2_778
10
8.6816404
20
-27.2851555
11
33.4863272
21
-27.2851555
0
LINE
8
DEFAULT_255_2_778
10
45.8886706
20
-27.2851555
11
70.6933574
21
-27.2851555
0
LINE
8
DEFAULT_255_2_778
10
48.3691393
20
-21.0839838
11
45.8886706
21
-21.0839838
0
LINE
8
DEFAULT_255_2_778
10
45.8886706
20
-21.0839838
11
45.8886706
21
-33.4863272
0
LINE
8
DEFAULT_255_2_778
10
45.8886706
20
-33.4863272
11
43.4082019
21
-33.4863272
0
LINE
8
DEFAULT_4_2_778
10
8.6816404
20
-24.8046868
11
8.6816404
21
-29.7656242
0
LINE
8
DEFAULT_4_2_778
10
6.2011717
20
-27.2851555
11
8.6816404
21
-27.2851555
0
LINE
8
DEFAULT_4_2_778
10
70.6933574
20
-29.7656242
11
70.6933574
21
-24.8046868
0
LINE
8
DEFAULT_4_2_778
10
73.1738261
20
-27.2851555
11
70.6933574
21
-27.2851555
0
ENDSEC
0
EOF