0
SECTION
2
HEADER
0
ENDSEC
0
SECTION
2
TABLES
0
TABLE
2
LTYPE
0
LTYPE
72
65
70
64
2
CONTINUOUS
3
______
73
0
40
0
0
ENDTAB
0
TABLE
2
LAYER
0
LAYER
2
DEFAULT_255_2_778
70
0
62
255
6
CONTINUOUS
0
LAYER
2
DEFAULT_4_2_778
70
0
62
4
6
CONTINUOUS
0
ENDTAB
0
ENDSEC
0
SECTION
2
ENTITIES
0
LINE
8
DEFAULT_255_2_778
10
42.3430758
20
-10.6418781
11
44.5334701
21
-7.1393
0
LINE
8
DEFAULT_255_2_778
10
44.5334701
20
-7.1393
11
44.679121
21
-11.267823
0
LINE
8
DEFAULT_255_2_778
10
44.679121
20
-11.267823
11
42.3430758
21
-10.6418781
0
LINE
8
DEFAULT_255_2_778
10
43.4589778
20
-11.1015946
11
42.197334
21
-15.3092269
0
LINE
8
DEFAULT_255_2_778
10
37.2072468
20
-10.6418781
11
39.3976492
21
-7.1393
0
LINE
8
DEFAULT_255_2_778
10
39.3976492
20
-7.1393
11
39.543296
21
-11.267823
0
LINE
8
DEFAULT_255_2_778
10
39.543296
20
-11.267823
11
37.2072468
21
-10.6418781
0
LINE
8
DEFAULT_255_2_778
10
38.3232652
20
-11.1009684
11
37.2359648
21
-15.3080011
0
LINE
8
DEFAULT_255_2_778
10
33.4863272
20
-16.4357615
11
33.4863272
21
-28.8381049
0
LINE
8
DEFAULT_255_2_778
10
33.4863272
20
-28.8381049
11
45.8886706
21
-22.6369332
0
LINE
8
DEFAULT_255_2_778
10
45.8886706
20
-22.6369332
11
33.4863272
21
-16.4357615
0
LINE
8
DEFAULT_255_2_778
10
8.6816404
20
-22.6369332
11
33.4863272
21
-22.6369332
0
LINE
8
DEFAULT_255_2_778
10
45.8886706
20
-22.6369332
11
70.6933574
21
-22.6369332
0
LINE
8
DEFAULT_255_2_778
10
45.8886706
20
-16.4357615
11
45.8886706
21
-28.8381049
0
LINE
8
DEFAULT_4_2_778
10
8.6816404
20
-20.1564645
11
8.6816404
21
-25.1174019
0
LINE
8
DEFAULT_4_2_778
10
6.2011717
20
-22.6369332
11
8.6816404
21
-22.6369332
0
LINE
8
DEFAULT_4_2_778
10
70.6933574
20
-25.1174019
11
70.6933574
21
-20.1564645
0
LINE
8
DEFAULT_4_2_778
10
73.1738261
20
-22.6369332
11
70.6933574
21
-22.6369332
0
ENDSEC
0
EOF