0
SECTION
2
HEADER
0
ENDSEC
0
SECTION
2
TABLES
0
TABLE
2
LTYPE
0
LTYPE
72
65
70
64
2
CONTINUOUS
3
______
73
0
40
0
0
ENDTAB
0
TABLE
2
LAYER
0
LAYER
2
DEFAULT_255_2_778
70
0
62
255
6
CONTINUOUS
0
LAYER
2
DEFAULT_4_2_778
70
0
62
4
6
CONTINUOUS
0
ENDTAB
0
ENDSEC
0
SECTION
2
ENTITIES
0
ARC
8
0
10
49.8488995
20
29.7697921
40
13.8821042
50
172.4519661
51
180.0172022
0
ARC
8
0
10
49.5914401
20
29.8030253
40
13.6225104
50
163.2789156
51
172.4482904
0
ARC
8
0
10
49.5238675
20
29.8214447
40
13.5524957
50
151.4835816
51
163.2713019
0
ARC
8
0
10
49.5959276
20
29.7787747
40
13.636185
50
116.9237164
51
151.4705939
0
ARC
8
0
10
49.5530908
20
29.8524955
40
13.551059
50
105.6724272
51
116.9033678
0
ARC
8
0
10
49.575276
20
29.7674894
40
13.6388978
50
96.8716061
51
105.6656934
0
ARC
8
0
10
49.6058465
20
29.5109903
40
13.897212
50
89.9854585
51
96.8702133
0
ARC
8
0
10
49.6135417
20
29.5260936
40
13.882109
50
82.4519676
51
90.0172028
0
ARC
8
0
10
49.6467749
20
29.7835532
40
13.6225149
50
73.2789187
51
82.4482918
0
ARC
8
0
10
49.6651947
20
29.8511297
40
13.5524964
50
61.4835817
51
73.271302
0
ARC
8
0
10
49.6225264
20
29.7790727
40
13.6361822
50
26.9237105
51
61.4705938
0
ARC
8
0
10
49.6962275
20
29.8219011
40
13.5510776
50
15.6724311
51
26.9033559
0
ARC
8
0
10
49.6112715
20
29.7997296
40
13.6388644
50
6.8715899
51
15.6656987
0
ARC
8
0
10
49.3547398
20
29.7691512
40
13.897212
50
359.9854585
51
6.8702133
0
ARC
8
0
10
49.3698431
20
29.7614561
40
13.8821089
50
352.4519676
51
0.0172028
0
ARC
8
0
10
49.6272729
20
29.7282281
40
13.6225451
50
343.278934
51
352.4482867
0
ARC
8
0
10
49.6948797
20
29.709801
40
13.5524954
50
331.483589
51
343.2713098
0
ARC
8
0
10
49.6228243
20
29.7524689
40
13.6361795
50
296.9237106
51
331.4705995
0
ARC
8
0
10
49.665651
20
29.6787732
40
13.5510804
50
285.6724288
51
296.9033519
0
ARC
8
0
10
49.6434792
20
29.763731
40
13.638869
50
276.8715886
51
285.6656957
0
ARC
8
0
10
49.6129007
20
30.0202646
40
13.8972185
50
269.9854585
51
276.8702116
0
ARC
8
0
10
49.6052057
20
30.00515
40
13.8821042
50
262.4519661
51
270.0172022
0
ARC
8
0
10
49.5719777
20
29.7477204
40
13.6225406
50
253.2789309
51
262.4482853
0
ARC
8
0
10
49.553551
20
29.6801175
40
13.5524947
50
241.4835889
51
253.2713097
0
ARC
8
0
10
49.5962206
20
29.752176
40
13.6361823
50
206.9237164
51
241.4705997
0
ARC
8
0
10
49.5225051
20
29.7093409
40
13.5510618
50
195.6724248
51
206.9033638
0
ARC
8
0
10
49.6075131
20
29.7315264
40
13.6389025
50
186.8716047
51
195.6656903
0
ARC
8
0
10
49.8640141
20
29.7620971
40
13.8972185
50
179.9854585
51
186.8702116
0
LINE
8
DEFAULT_255_2_778
10
35.9667959
20
29.7656242
11
35.9667959
21
29.7656242
0
LINE
8
DEFAULT_255_2_778
10
18.6035283
20
29.7656242
11
47.1289182
21
29.7656242
0
LINE
8
DEFAULT_255_2_778
10
47.1289182
20
34.7265615
11
47.1289182
21
24.8046868
0
LINE
8
DEFAULT_255_2_778
10
55.8105586
20
62.011717
11
55.8105586
21
34.7265615
0
LINE
8
DEFAULT_255_2_778
10
55.8105586
20
34.7265615
11
49.6093868
21
34.7265615
0
LINE
8
DEFAULT_255_2_778
10
55.8105586
20
-2.4804687
11
55.8105586
21
24.8046868
0
LINE
8
DEFAULT_255_2_778
10
55.8105586
20
24.8046868
11
49.6093868
21
24.8046868
0
LINE
8
DEFAULT_255_2_778
10
43.4082151
20
28.5253898
11
39.6875121
21
29.7656242
0
LINE
8
DEFAULT_255_2_778
10
39.6875121
20
29.7656242
11
43.4082151
21
31.0058585
0
LINE
8
DEFAULT_255_2_778
10
43.4082151
20
31.0058585
11
43.4082151
21
28.5253898
0
LINE
8
DEFAULT_4_2_778
10
18.6035151
20
32.2460929
11
18.6035151
21
27.2851555
0
LINE
8
DEFAULT_4_2_778
10
16.1230464
20
29.7656242
11
18.6035151
21
29.7656242
0
LINE
8
DEFAULT_4_2_778
10
58.291014
20
62.011717
11
53.3300766
21
62.011717
0
LINE
8
DEFAULT_4_2_778
10
55.8105453
20
64.4921857
11
55.8105453
21
62.011717
0
LINE
8
DEFAULT_4_2_778
10
53.3300766
20
-2.4804687
11
58.291014
21
-2.4804687
0
LINE
8
DEFAULT_4_2_778
10
55.8105453
20
-4.9609374
11
55.8105453
21
-2.4804687
0
LINE
8
DEFAULT_255_2_778
10
49.6093736
20
37.2070302
11
49.6093736
21
22.3242181
0
ENDSEC
0
EOF