0
SECTION
2
HEADER
0
ENDSEC
0
SECTION
2
TABLES
0
TABLE
2
LTYPE
0
LTYPE
72
65
70
64
2
CONTINUOUS
3
______
73
0
40
0
0
ENDTAB
0
TABLE
2
LAYER
0
LAYER
2
DEFAULT_255_2_778
70
0
62
255
6
CONTINUOUS
0
LAYER
2
DEFAULT_4_2_778
70
0
62
4
6
CONTINUOUS
0
ENDTAB
0
ENDSEC
0
SECTION
2
ENTITIES
0
LINE
8
DEFAULT_255_2_778
10
8.6816404
20
34.7265615
11
70.6933574
21
34.7265615
0
LINE
8
DEFAULT_255_2_778
10
70.6933574
20
34.7265615
11
70.6933574
21
-14.8828121
0
LINE
8
DEFAULT_255_2_778
10
70.6933574
20
-14.8828121
11
8.6816404
21
-14.8828121
0
LINE
8
DEFAULT_255_2_778
10
8.6816404
20
-14.8828121
11
8.6816404
21
34.7265615
0
LINE
8
DEFAULT_255_2_778
10
8.6816404
20
22.3242049
11
21.0839838
21
22.3242049
0
LINE
8
DEFAULT_255_2_778
10
21.0839838
20
22.3242049
11
21.0839838
21
13.7975938
0
LINE
8
DEFAULT_255_2_778
10
21.0839838
20
6.2011585
11
16.1230464
21
13.6425645
0
LINE
8
DEFAULT_255_2_778
10
16.1230464
20
13.6425645
11
26.0449212
21
13.6425645
0
LINE
8
DEFAULT_255_2_778
10
26.0449212
20
13.6425645
11
21.0839838
21
6.2011585
0
LINE
8
DEFAULT_255_2_778
10
24.8047
20
6.2011585
11
17.363294
21
6.2011585
0
LINE
8
DEFAULT_255_2_778
10
8.6816536
20
-2.4804819
11
21.083997
21
-2.4804819
0
LINE
8
DEFAULT_255_2_778
10
21.083997
20
-2.4804819
11
21.083997
21
5.8910999
0
LINE
8
DEFAULT_255_2_778
10
38.4472778
20
6.2011717
11
42.1679808
21
7.441406
0
LINE
8
DEFAULT_255_2_778
10
42.1679808
20
7.441406
11
38.4472778
21
8.6816404
0
LINE
8
DEFAULT_255_2_778
10
38.4472778
20
8.6816404
11
38.4472778
21
6.2011717
0
LINE
8
DEFAULT_255_2_778
10
38.4468527
20
7.4413548
11
33.4857336
21
7.4407694
0
LINE
8
DEFAULT_255_2_778
10
49.6093868
20
16.1230464
11
49.6093868
21
3.720703
0
LINE
8
DEFAULT_255_2_778
10
70.6933706
20
22.3242181
11
58.2910272
21
22.3242181
0
LINE
8
DEFAULT_255_2_778
10
58.2910272
20
22.3242181
11
58.2910272
21
17.3632808
0
LINE
8
DEFAULT_255_2_778
10
58.2910272
20
17.3632808
11
49.6093868
21
13.6425777
0
LINE
8
DEFAULT_255_2_778
10
70.6933706
20
-2.4804687
11
58.2910272
21
-2.4804687
0
LINE
8
DEFAULT_255_2_778
10
58.2910272
20
-2.4804687
11
58.2910272
21
2.4804687
0
LINE
8
DEFAULT_255_2_778
10
58.2910272
20
2.4804687
11
49.6093868
21
6.2011717
0
LINE
8
DEFAULT_255_2_778
10
51.4261068
20
3.8621712
11
55.5587961
21
3.5461456
0
LINE
8
DEFAULT_255_2_778
10
55.5587961
20
3.5461456
11
52.3664563
21
6.1896212
0
LINE
8
DEFAULT_255_2_778
10
52.3664563
20
6.1896212
11
51.4261068
21
3.8621712
0
LINE
8
DEFAULT_4_2_778
10
8.6816404
20
24.8046868
11
8.6816404
21
19.8437494
0
LINE
8
DEFAULT_4_2_778
10
6.2011717
20
22.3242181
11
8.6816404
21
22.3242181
0
LINE
8
DEFAULT_4_2_778
10
70.6933574
20
19.8437494
11
70.6933574
21
24.8046868
0
LINE
8
DEFAULT_4_2_778
10
73.1738261
20
22.3242181
11
70.6933574
21
22.3242181
0
LINE
8
DEFAULT_4_2_778
10
70.6933574
20
-4.9609374
11
70.6933574
21
0
0
LINE
8
DEFAULT_4_2_778
10
73.1738261
20
-2.4804687
11
70.6933574
21
-2.4804687
0
LINE
8
DEFAULT_4_2_778
10
8.6816404
20
0
11
8.6816404
21
-4.9609374
0
LINE
8
DEFAULT_4_2_778
10
6.2011717
20
-2.4804687
11
8.6816404
21
-2.4804687
0
LINE
8
DEFAULT_255_2_778
10
38.4472778
20
9.9218747
11
42.1679808
21
11.1621091
0
LINE
8
DEFAULT_255_2_778
10
42.1679808
20
11.1621091
11
38.4472778
21
12.4023434
0
LINE
8
DEFAULT_255_2_778
10
38.4472778
20
12.4023434
11
38.4472778
21
9.9218747
0
LINE
8
DEFAULT_255_2_778
10
38.4468527
20
11.1620578
11
33.4857336
21
11.1614724
0
ENDSEC
0
EOF