0
SECTION
2
HEADER
0
ENDSEC
0
SECTION
2
TABLES
0
TABLE
2
LTYPE
0
LTYPE
72
65
70
64
2
CONTINUOUS
3
______
73
0
40
0
0
ENDTAB
0
TABLE
2
LAYER
0
LAYER
2
DEFAULT_255_2_778
70
0
62
255
6
CONTINUOUS
0
LAYER
2
DEFAULT_4_2_778
70
0
62
4
6
CONTINUOUS
0
ENDTAB
0
ENDSEC
0
SECTION
2
ENTITIES
0
LINE
8
DEFAULT_255_2_778
10
8.6816404
20
34.7265615
11
70.6933574
21
34.7265615
0
LINE
8
DEFAULT_255_2_778
10
70.6933574
20
34.7265615
11
70.6933574
21
-14.8828121
0
LINE
8
DEFAULT_255_2_778
10
70.6933574
20
-14.8828121
11
8.6816404
21
-14.8828121
0
LINE
8
DEFAULT_255_2_778
10
8.6816404
20
-14.8828121
11
8.6816404
21
34.7265615
0
LINE
8
DEFAULT_255_2_778
10
70.6933574
20
22.3242181
11
58.291014
21
22.3242181
0
LINE
8
DEFAULT_255_2_778
10
58.291014
20
22.3242181
11
58.291014
21
12.4023434
0
LINE
8
DEFAULT_255_2_778
10
70.6933574
20
-2.4804687
11
58.291014
21
-2.4804687
0
LINE
8
DEFAULT_255_2_778
10
58.291014
20
-2.4804687
11
58.291014
21
7.441406
0
LINE
8
DEFAULT_255_2_778
10
66.9726544
20
12.4023434
11
49.6093736
21
12.4023434
0
LINE
8
DEFAULT_255_2_778
10
66.9726544
20
7.441406
11
49.6093736
21
7.441406
0
LINE
8
DEFAULT_255_2_778
10
59.5312616
20
12.4023302
11
62.0117303
21
7.4413928
0
LINE
8
DEFAULT_255_2_778
10
62.0117303
20
7.4413928
11
64.4921989
21
12.4023302
0
LINE
8
DEFAULT_255_2_778
10
52.0898555
20
7.4413928
11
54.5703242
21
12.4023302
0
LINE
8
DEFAULT_255_2_778
10
54.5703242
20
12.4023302
11
57.0507929
21
7.4413928
0
LINE
8
DEFAULT_255_2_778
10
8.6816536
20
22.3242049
11
21.083997
21
22.3242049
0
LINE
8
DEFAULT_255_2_778
10
21.083997
20
22.3242049
11
21.083997
21
13.7975938
0
LINE
8
DEFAULT_255_2_778
10
21.083997
20
6.2011585
11
16.1230597
21
13.6425645
0
LINE
8
DEFAULT_255_2_778
10
16.1230597
20
13.6425645
11
26.0449344
21
13.6425645
0
LINE
8
DEFAULT_255_2_778
10
26.0449344
20
13.6425645
11
21.083997
21
6.2011585
0
LINE
8
DEFAULT_255_2_778
10
24.8047
20
6.2011585
11
17.363294
21
6.2011585
0
LINE
8
DEFAULT_255_2_778
10
8.6816536
20
-2.4804819
11
21.083997
21
-2.4804819
0
LINE
8
DEFAULT_255_2_778
10
21.083997
20
-2.4804819
11
21.083997
21
5.8910999
0
LINE
8
DEFAULT_255_2_778
10
38.4472778
20
6.2011717
11
42.1679808
21
7.441406
0
LINE
8
DEFAULT_255_2_778
10
42.1679808
20
7.441406
11
38.4472778
21
8.6816404
0
LINE
8
DEFAULT_255_2_778
10
38.4472778
20
8.6816404
11
38.4472778
21
6.2011717
0
LINE
8
DEFAULT_255_2_778
10
38.4468527
20
7.4413548
11
33.4857336
21
7.4407694
0
LINE
8
DEFAULT_255_2_778
10
38.4472778
20
9.9218747
11
42.1679808
21
11.1621091
0
LINE
8
DEFAULT_255_2_778
10
42.1679808
20
11.1621091
11
38.4472778
21
12.4023434
0
LINE
8
DEFAULT_255_2_778
10
38.4472778
20
12.4023434
11
38.4472778
21
9.9218747
0
LINE
8
DEFAULT_255_2_778
10
38.4468527
20
11.1620578
11
33.4857336
21
11.1614724
0
LINE
8
DEFAULT_4_2_778
10
8.6816404
20
24.8046868
11
8.6816404
21
19.8437494
0
LINE
8
DEFAULT_4_2_778
10
6.2011717
20
22.3242181
11
8.6816404
21
22.3242181
0
LINE
8
DEFAULT_4_2_778
10
8.6816404
20
0
11
8.6816404
21
-4.9609374
0
LINE
8
DEFAULT_4_2_778
10
6.2011717
20
-2.4804687
11
8.6816404
21
-2.4804687
0
LINE
8
DEFAULT_4_2_778
10
70.6933574
20
0
11
70.6933574
21
-4.9609374
0
LINE
8
DEFAULT_4_2_778
10
73.1738261
20
-2.4804687
11
70.6933574
21
-2.4804687
0
LINE
8
DEFAULT_4_2_778
10
70.6933574
20
24.8046868
11
70.6933574
21
19.8437494
0
LINE
8
DEFAULT_4_2_778
10
73.1738261
20
22.3242181
11
70.6933574
21
22.3242181
0
ENDSEC
0
EOF