0
SECTION
2
HEADER
0
ENDSEC
0
SECTION
2
TABLES
0
TABLE
2
LTYPE
0
LTYPE
72
65
70
64
2
CONTINUOUS
3
______
73
0
40
0
0
ENDTAB
0
TABLE
2
LAYER
0
LAYER
2
DEFAULT_255_2_778
70
0
62
255
6
CONTINUOUS
0
LAYER
2
DEFAULT_4_2_778
70
0
62
4
6
CONTINUOUS
0
ENDTAB
0
ENDSEC
0
SECTION
2
ENTITIES
0
LINE
8
DEFAULT_255_2_778
10
4.3408202
20
32.86621
11
75.0341776
21
32.86621
0
LINE
8
DEFAULT_255_2_778
10
75.0341776
20
32.86621
11
75.0341776
21
-15.5029293
0
LINE
8
DEFAULT_255_2_778
10
75.0341776
20
-15.5029293
11
4.3408202
21
-15.5029293
0
LINE
8
DEFAULT_255_2_778
10
4.3408202
20
-15.5029293
11
4.3408202
21
32.86621
0
LINE
8
DEFAULT_255_2_778
10
63.8720685
20
9.3017443
11
60.1513655
21
15.502916
0
LINE
8
DEFAULT_255_2_778
10
60.1513655
20
15.502916
11
67.5927716
21
15.502916
0
LINE
8
DEFAULT_255_2_778
10
67.5927716
20
15.502916
11
63.8720685
21
9.3017443
0
LINE
8
DEFAULT_255_2_778
10
75.0341776
20
20.4638534
11
51.4697251
21
20.4638534
0
LINE
8
DEFAULT_255_2_778
10
51.4697251
20
20.4638534
11
51.4697251
21
3.1005726
0
LINE
8
DEFAULT_255_2_778
10
51.4697251
20
3.1005726
11
46.5087878
21
3.1005726
0
LINE
8
DEFAULT_255_2_778
10
75.0341776
20
-3.1005859
11
51.4697251
21
-3.1005859
0
LINE
8
DEFAULT_255_2_778
10
51.4697251
20
-3.1005859
11
51.4697251
21
-0.6201172
0
LINE
8
DEFAULT_255_2_778
10
51.4697251
20
-0.6201172
11
46.5087878
21
-0.6201172
0
LINE
8
DEFAULT_255_2_778
10
63.8720685
20
20.4638666
11
63.8720685
21
15.5029293
0
LINE
8
DEFAULT_255_2_778
10
63.8720818
20
-3.1005859
11
63.8720818
21
3.1005859
0
LINE
8
DEFAULT_255_2_778
10
44.0283323
20
19.2236323
11
44.0283323
21
9.3017576
0
LINE
8
DEFAULT_255_2_778
10
44.0283323
20
9.3017576
11
41.5478636
21
9.3017576
0
LINE
8
DEFAULT_255_2_778
10
41.5478636
20
9.3017576
11
41.5478636
21
-1.8603515
0
LINE
8
DEFAULT_255_2_778
10
41.5478636
20
-1.8603515
11
44.0283323
21
-1.8603515
0
LINE
8
DEFAULT_255_2_778
10
44.0283323
20
-1.8603515
11
44.0283323
21
6.8212889
0
LINE
8
DEFAULT_255_2_778
10
4.3408334
20
-3.1005859
11
16.7431768
21
-3.1005859
0
LINE
8
DEFAULT_255_2_778
10
16.7431768
20
-3.1005859
11
16.7431768
21
5.5810545
0
LINE
8
DEFAULT_255_2_778
10
4.3408334
20
20.4638666
11
16.7431768
21
20.4638666
0
LINE
8
DEFAULT_255_2_778
10
16.7431768
20
20.4638666
11
16.7431768
21
11.7822262
0
LINE
8
DEFAULT_255_2_778
10
13.0224738
20
5.5810545
11
20.4638798
21
5.5810545
0
LINE
8
DEFAULT_255_2_778
10
20.4638798
20
5.5810545
11
16.7431768
21
11.7822262
0
LINE
8
DEFAULT_255_2_778
10
16.7431768
20
11.7822262
11
13.0224738
21
5.5810545
0
LINE
8
DEFAULT_255_2_778
10
13.0224738
20
11.782213
11
20.4638798
21
11.782213
0
LINE
8
DEFAULT_255_2_778
10
27.2847381
20
14.8833531
11
29.1449947
21
17.9839814
0
LINE
8
DEFAULT_255_2_778
10
29.1449947
20
17.9839814
11
25.4254221
21
16.744177
0
LINE
8
DEFAULT_255_2_778
10
25.4254221
20
16.744177
11
27.2847381
21
14.8833531
0
LINE
8
DEFAULT_255_2_778
10
26.0452762
20
15.5010135
11
22.9445491
21
13.0191641
0
LINE
8
DEFAULT_4_2_778
10
4.3408334
20
17.9833847
11
4.3408334
21
22.9443221
0
LINE
8
DEFAULT_4_2_778
10
1.8603647
20
20.4638798
11
4.3408334
21
20.4638798
0
LINE
8
DEFAULT_4_2_778
10
4.3408334
20
-5.5810678
11
4.3408334
21
-0.6201304
0
LINE
8
DEFAULT_4_2_778
10
1.8603647
20
-3.1005991
11
4.3408334
21
-3.1005991
0
LINE
8
DEFAULT_255_2_778
10
26.0452762
20
10.5400761
11
22.9445491
21
8.0582267
0
LINE
8
DEFAULT_255_2_778
10
27.2847381
20
9.9224168
11
29.1449947
21
13.023043
0
LINE
8
DEFAULT_255_2_778
10
29.1449947
20
13.023043
11
25.4254221
21
11.7832406
0
LINE
8
DEFAULT_255_2_778
10
25.4254221
20
11.7832406
11
27.2847381
21
9.9224168
0
LINE
8
DEFAULT_255_2_778
10
46.508801
20
15.502916
11
46.508801
21
13.0224473
0
LINE
8
DEFAULT_255_2_778
10
46.508801
20
14.2626949
11
51.4697384
21
14.2626949
0
LINE
8
DEFAULT_255_2_778
10
46.508801
20
0.6201172
11
46.508801
21
-1.8603515
0
LINE
8
DEFAULT_255_2_778
10
46.508801
20
8.0615232
11
46.508801
21
5.5810545
0
LINE
8
DEFAULT_255_2_778
10
48.9892697
20
4.3408202
11
46.508801
21
3.1005859
0
LINE
8
DEFAULT_255_2_778
10
46.508801
20
3.1005859
11
48.9892697
21
1.8603515
0
LINE
8
DEFAULT_4_2_778
10
75.0341908
20
-5.5810678
11
75.0341908
21
-0.6201304
0
LINE
8
DEFAULT_4_2_778
10
77.5146595
20
-3.1005991
11
75.0341908
21
-3.1005991
0
LINE
8
DEFAULT_4_2_778
10
75.0341908
20
17.9833847
11
75.0341908
21
22.9443221
0
LINE
8
DEFAULT_4_2_778
10
77.5146595
20
20.4638534
11
75.0341908
21
20.4638534
0
LINE
8
DEFAULT_255_2_778
10
70.0732535
20
5.5810413
11
66.9726676
21
9.3017443
0
LINE
8
DEFAULT_255_2_778
10
66.9726676
20
9.3017443
11
60.7714959
21
9.3017443
0
LINE
8
DEFAULT_255_2_778
10
60.7714959
20
9.3017443
11
57.6709101
21
13.0224473
0
LINE
8
DEFAULT_255_2_778
10
60.1513655
20
3.1005726
11
67.5927716
21
3.1005726
0
LINE
8
DEFAULT_255_2_778
10
67.5927716
20
3.1005726
11
63.8720685
21
9.3017443
0
LINE
8
DEFAULT_255_2_778
10
63.8720685
20
9.3017443
11
60.1513655
21
3.1005726
0
LINE
8
DEFAULT_255_2_778
10
46.5087878
20
4.340807
11
46.5087878
21
1.8603383
0
LINE
8
DEFAULT_255_2_778
10
51.4697251
20
6.8212756
11
46.5087878
21
6.8212756
0
LINE
8
DEFAULT_255_2_778
10
46.5087878
20
11.782213
11
46.5087878
21
9.3017443
0
LINE
8
DEFAULT_255_2_778
10
51.4697384
20
10.5419919
11
46.508801
21
10.5419919
0
LINE
8
DEFAULT_255_2_778
10
48.9892697
20
15.5029293
11
46.508801
21
14.2626949
0
LINE
8
DEFAULT_255_2_778
10
46.508801
20
14.2626949
11
48.9892697
21
13.0224606
0
LINE
8
DEFAULT_255_2_778
10
46.508801
20
19.2236323
11
46.508801
21
16.7431636
0
LINE
8
DEFAULT_255_2_778
10
51.4697384
20
17.9833847
11
46.508801
21
17.9833847
0
ENDSEC
0
EOF