0
SECTION
2
HEADER
0
ENDSEC
0
SECTION
2
TABLES
0
TABLE
2
LTYPE
0
LTYPE
72
65
70
64
2
CONTINUOUS
3
______
73
0
40
0
0
ENDTAB
0
TABLE
2
LAYER
0
LAYER
2
DEFAULT_255_2_778
70
0
62
255
6
CONTINUOUS
0
LAYER
2
DEFAULT_4_2_778
70
0
62
4
6
CONTINUOUS
0
ENDTAB
0
ENDSEC
0
SECTION
2
ENTITIES
0
LINE
8
DEFAULT_255_2_778
10
58.291014
20
-18.6035151
11
58.291014
21
2.4804687
0
LINE
8
DEFAULT_255_2_778
10
21.0839838
20
-18.6035151
11
21.0839838
21
2.4804687
0
LINE
8
DEFAULT_255_2_778
10
8.6816404
20
-21.0839838
11
27.2851555
21
-21.0839838
0
LINE
8
DEFAULT_255_2_778
10
27.2851555
20
-21.0839838
11
28.5253898
21
-17.3632808
0
LINE
8
DEFAULT_255_2_778
10
28.5253898
20
-17.3632808
11
31.0058585
21
-24.8046868
0
LINE
8
DEFAULT_255_2_778
10
31.0058585
20
-24.8046868
11
33.4863272
21
-17.3632808
0
LINE
8
DEFAULT_255_2_778
10
33.4863272
20
-17.3632808
11
35.9667959
21
-24.8046868
0
LINE
8
DEFAULT_255_2_778
10
35.9667959
20
-24.8046868
11
38.4472646
21
-17.3632808
0
LINE
8
DEFAULT_255_2_778
10
38.4472646
20
-17.3632808
11
40.9277332
21
-24.8046868
0
LINE
8
DEFAULT_255_2_778
10
40.9277332
20
-24.8046868
11
43.4082019
21
-17.3632808
0
LINE
8
DEFAULT_255_2_778
10
43.4082019
20
-17.3632808
11
45.8886706
21
-24.8046868
0
LINE
8
DEFAULT_255_2_778
10
45.8886706
20
-24.8046868
11
48.3691393
21
-17.3632808
0
LINE
8
DEFAULT_255_2_778
10
48.3691393
20
-17.3632808
11
50.849608
21
-24.8046868
0
LINE
8
DEFAULT_255_2_778
10
50.849608
20
-24.8046868
11
52.0898423
21
-21.0839838
0
LINE
8
DEFAULT_255_2_778
10
52.0898423
20
-21.0839838
11
70.6933574
21
-21.0839838
0
LINE
8
DEFAULT_4_2_778
10
8.6816404
20
-18.6035151
11
8.6816404
21
-23.5644525
0
LINE
8
DEFAULT_4_2_778
10
6.2011717
20
-21.0839838
11
8.6816404
21
-21.0839838
0
LINE
8
DEFAULT_4_2_778
10
70.6933574
20
-23.5644525
11
70.6933574
21
-18.6035151
0
LINE
8
DEFAULT_4_2_778
10
73.1738261
20
-21.0839838
11
70.6933574
21
-21.0839838
0
LINE
8
DEFAULT_4_2_778
10
60.7714827
20
2.4804687
11
55.8105453
21
2.4804687
0
LINE
8
DEFAULT_4_2_778
10
58.2910045
20
4.960943
11
58.3232498
21
2.4345843
0
LINE
8
DEFAULT_4_2_778
10
23.564443
20
2.4804743
11
18.6035056
21
2.4804743
0
LINE
8
DEFAULT_4_2_778
10
21.0839838
20
4.9609374
11
21.0839838
21
2.4804687
0
ENDSEC
0
EOF