0
SECTION
2
HEADER
0
ENDSEC
0
SECTION
2
TABLES
0
TABLE
2
LTYPE
0
LTYPE
72
65
70
64
2
CONTINUOUS
3
______
73
0
40
0
0
ENDTAB
0
TABLE
2
LAYER
0
LAYER
2
DEFAULT_255_2_778
70
0
62
255
6
CONTINUOUS
0
LAYER
2
DEFAULT_4_2_778
70
0
62
4
6
CONTINUOUS
0
ENDTAB
0
ENDSEC
0
SECTION
2
ENTITIES
0
ARC
8
0
10
40.1468239
20
9.9260624
40
22.7835435
50
174.2449318
51
180.0105312
0
ARC
8
0
10
39.7634279
20
9.9642168
40
22.3982538
50
167.5259685
51
174.2436953
0
ARC
8
0
10
39.5696087
20
10.0059727
40
22.1999908
50
159.6161515
51
167.5231445
0
ARC
8
0
10
39.5582724
20
10.0084485
40
22.188502
50
149.8183066
51
159.6119483
0
ARC
8
0
10
39.6708794
20
9.9385389
40
22.3209903
50
120.3822903
51
149.8085012
0
ARC
8
0
10
39.6014634
20
10.0499432
40
22.1897773
50
110.5569837
51
120.3731537
0
ARC
8
0
10
39.602213
20
10.0435482
40
22.1960285
50
102.9024208
51
110.552999
0
ARC
8
0
10
39.6410088
20
9.8700309
40
22.3738277
50
96.4609424
51
102.9000427
0
ARC
8
0
10
39.6797671
20
9.5225794
40
22.7234337
50
90.7993121
51
96.4594669
0
ARC
8
0
10
39.6874215
20
9.2403502
40
23.0057426
50
89.9998073
51
90.8085682
0
ARC
8
0
10
39.6916866
20
9.4625318
40
22.7835614
50
84.2449339
51
90.0105312
0
ARC
8
0
10
39.7298413
20
9.8459318
40
22.3982678
50
77.5259724
51
84.2436971
0
ARC
8
0
10
39.7715978
20
10.0397549
40
22.2000007
50
69.6161568
51
77.5231478
0
ARC
8
0
10
39.7740797
20
10.0511094
40
22.1884928
50
59.8183055
51
69.6119519
0
ARC
8
0
10
39.704171
20
9.9385028
40
22.3209803
50
30.3822798
51
59.8085017
0
ARC
8
0
10
39.8155697
20
10.0079132
40
22.189775
50
20.556978
51
30.3731484
0
ARC
8
0
10
39.8091734
20
10.0071637
40
22.1960271
50
12.9024133
51
20.5529917
0
ARC
8
0
10
39.6355938
20
9.9683561
40
22.3738897
50
6.4609469
51
12.9000293
0
ARC
8
0
10
39.2882037
20
9.9296065
40
22.7234337
50
0.7993121
51
6.4594669
0
ARC
8
0
10
39.0059744
20
9.9219521
40
23.0057426
50
359.9998073
51
0.8085682
0
ARC
8
0
10
39.2281813
20
9.917687
40
22.7835361
50
354.2449308
51
0.0105312
0
ARC
8
0
10
39.6115762
20
9.8795327
40
22.3982476
50
347.5259666
51
354.2436944
0
ARC
8
0
10
39.8053913
20
9.8377741
40
22.1999881
50
339.6161586
51
347.5231518
0
ARC
8
0
10
39.8167281
20
9.8352987
40
22.1884991
50
329.8183118
51
339.611954
0
ARC
8
0
10
39.7041218
20
9.9052057
40
22.3209858
50
300.3822957
51
329.8085113
0
ARC
8
0
10
39.773534
20
9.7938104
40
22.1897822
50
290.5569871
51
300.3731558
0
ARC
8
0
10
39.7727864
20
9.8001975
40
22.196025
50
282.9024235
51
290.5530045
0
ARC
8
0
10
39.7339893
20
9.9737328
40
22.3738418
50
276.4609404
51
282.9000386
0
ARC
8
0
10
39.6952238
20
10.3212658
40
22.7235297
50
270.7993264
51
276.4594597
0
ARC
8
0
10
39.6875763
20
10.6034103
40
23.0057537
50
269.9998073
51
270.8085681
0
ARC
8
0
10
39.6833112
20
10.3811997
40
22.7835435
50
264.2449318
51
270.0105312
0
ARC
8
0
10
39.6451494
20
9.9977468
40
22.3981965
50
257.5259556
51
264.2436996
0
ARC
8
0
10
39.603401
20
9.803985
40
22.1999911
50
249.6161515
51
257.5231445
0
ARC
8
0
10
39.6009276
20
9.7926489
40
22.1885033
50
239.8183013
51
249.6119427
0
ARC
8
0
10
39.670837
20
9.9052578
40
22.3209934
50
210.3822911
51
239.8084989
0
ARC
8
0
10
39.55943
20
9.8358399
40
22.1897769
50
200.5569837
51
210.3731537
0
ARC
8
0
10
39.5658241
20
9.8365892
40
22.1960271
50
192.9024208
51
200.5529991
0
ARC
8
0
10
39.7393492
20
9.8753865
40
22.3738342
50
186.4609444
51
192.9000421
0
ARC
8
0
10
40.0867869
20
9.9141429
40
22.7234264
50
180.7993122
51
186.4594681
0
ARC
8
0
10
40.3690197
20
9.9217974
40
23.0057389
50
179.9998073
51
180.8085682
0
LINE
8
DEFAULT_255_2_778
10
17.3632808
20
9.9218747
11
17.3632808
21
9.9218747
0
ARC
8
0
10
394.3100531
20
-3.3781407
40
344.1921845
50
179.9803017
51
180.0037611
0
ARC
8
0
10
189.3988407
20
-3.309611
40
139.2809606
50
179.9212062
51
179.9795123
0
ARC
8
0
10
143.5856414
20
-3.2441578
40
93.4677146
50
179.7915712
51
179.9227083
0
ARC
8
0
10
122.6618204
20
-3.1683098
40
72.543756
50
179.5993291
51
179.7913592
0
ARC
8
0
10
111.5258107
20
-3.0906529
40
61.4074754
50
179.3533266
51
179.5991249
0
ARC
8
0
10
104.6507768
20
-3.0136899
40
54.5320107
50
179.098236
51
179.3526585
0
ARC
8
0
10
99.0229439
20
-2.9236179
40
48.9034574
50
178.7110435
51
179.0999811
0
ARC
8
0
10
93.5267373
20
-2.7991089
40
43.4058408
50
178.2177902
51
178.7121554
0
ARC
8
0
10
87.715114
20
-2.6148688
40
37.5912989
50
177.447507
51
178.2229833
0
ARC
8
0
10
80.8955731
20
-2.3041851
40
30.7646887
50
176.2120386
51
177.4599279
0
ARC
8
0
10
72.3981551
20
-1.7199479
40
22.2472478
50
173.7557301
51
176.2676296
0
ARC
8
0
10
65.5561914
20
-0.9831662
40
15.3657425
50
171.6029939
51
173.7118331
0
ARC
8
0
10
61.4647958
20
-0.3787147
40
11.229938
50
169.2066703
51
171.605544
0
ARC
8
0
10
58.4697092
20
0.1925243
40
8.1808631
50
166.5017045
51
169.2084381
0
ARC
8
0
10
56.3178754
20
0.7091332
40
5.9678847
50
163.4746054
51
166.5023307
0
ARC
8
0
10
54.6754287
20
1.1991813
40
4.2538927
50
159.4396681
51
163.5100026
0
ARC
8
0
10
53.4086029
20
1.6764649
40
2.9001418
50
154.1514097
51
159.4788054
0
ARC
8
0
10
52.5213903
20
2.1083364
40
1.9134028
50
147.1014596
51
154.2065896
0
ARC
8
0
10
51.9429818
20
2.4853397
40
1.2229834
50
136.9505382
51
147.2129747
0
ARC
8
0
10
51.6094477
20
2.8011316
40
0.7636859
50
120.2936054
51
137.1823196
0
ARC
8
0
10
51.4977707
20
2.9897669
40
0.5444766
50
90.0048264
51
120.1595179
0
ARC
8
0
10
51.4963865
20
2.9304149
40
0.60383
50
79.5998707
51
89.8730083
0
ARC
8
0
10
51.4751385
20
2.8132767
40
0.7228794
50
71.837036
51
79.6194548
0
ARC
8
0
10
51.4257464
20
2.6615299
40
0.8824617
50
65.7616754
51
71.8611608
0
ARC
8
0
10
51.3440676
20
2.4793804
40
1.0820859
50
60.7501427
51
65.7775573
0
ARC
8
0
10
51.2248817
20
2.2659507
40
1.3265393
50
56.5327367
51
60.7629457
0
ARC
8
0
10
51.0678131
20
2.0275084
40
1.6120654
50
53.1280256
51
56.5492528
0
ARC
8
0
10
50.8764654
20
1.7718222
40
1.9314231
50
50.2738468
51
53.1382644
0
ARC
8
0
10
50.6387497
20
1.4856744
40
2.3034303
50
47.6295002
51
50.2751774
0
ARC
8
0
10
50.3414706
20
1.1594755
40
2.7447698
50
45.2826244
51
47.6337189
0
ARC
8
0
10
50.1448073
20
0.9584092
40
3.0260195
50
44.9992804
51
45.3153068
0
ARC
8
0
10
51.0735745
20
1.8854386
40
1.7137736
50
41.6197666
51
45.0398116
0
ARC
8
0
10
51.2414158
20
2.0343975
40
1.4893645
50
37.7705543
51
41.6244026
0
ARC
8
0
10
51.3956741
20
2.1537466
40
1.2943265
50
33.3410151
51
37.7768141
0
ARC
8
0
10
51.5341611
20
2.2447496
40
1.1286154
50
28.2977711
51
33.3455914
0
ARC
8
0
10
51.6566677
20
2.310491
40
0.9895839
50
22.1618673
51
28.3087582
0
ARC
8
0
10
51.759447
20
2.3522841
40
0.8786323
50
14.7961098
51
22.1661303
0
ARC
8
0
10
51.8348327
20
2.3721306
40
0.800678
50
4.7358051
51
14.8006588
0
ARC
8
0
10
51.8588455
20
2.3747733
40
0.7765294
50
0.0007711
51
4.6877609
0
ARC
8
0
10
51.7784769
20
2.3828844
40
0.8569363
50
333.5734113
51
359.4583767
0
ARC
8
0
10
51.4466329
20
2.5376107
40
1.2229994
50
322.2127544
51
334.0011052
0
ARC
8
0
10
51.0779779
20
2.8201016
40
1.6874374
50
313.8127856
51
322.3022687
0
ARC
8
0
10
50.6659088
20
3.247647
40
2.2812341
50
306.8649248
51
313.8469404
0
ARC
8
0
10
50.2338309
20
3.8211766
40
2.999305
50
300.9976018
51
306.8956206
0
ARC
8
0
10
49.8180068
20
4.5116511
40
3.8053225
50
295.5052041
51
301.0103096
0
ARC
8
0
10
49.4618831
20
5.2570406
40
4.6314153
50
289.7360359
51
295.5108766
0
ARC
8
0
10
49.25476
20
5.8307005
40
5.2413204
50
279.4851185
51
289.749576
0
ARC
8
0
10
49.3087859
20
5.5114737
40
4.9175548
50
276.1586132
51
279.4771794
0
ARC
8
0
10
49.3494115
20
5.1356078
40
4.5394999
50
273.2089203
51
276.1577567
0
ARC
8
0
10
49.3714639
20
4.7436314
40
4.1469037
50
270.4362929
51
273.2078676
0
ARC
8
0
10
49.3747027
20
4.5180624
40
3.921317
50
270.0003322
51
270.4140689
0
ARC
8
0
10
49.3689702
20
4.1158145
40
3.5190738
50
264.4993918
51
270.0937031
0
ARC
8
0
10
49.3015744
20
3.4197341
40
2.8197384
50
258.4790003
51
264.5067428
0
ARC
8
0
10
49.1802986
20
2.8294209
40
2.2170974
50
251.3588669
51
258.5030529
0
ARC
8
0
10
49.017087
20
2.3498366
40
1.7105041
50
242.2331506
51
251.4042629
0
ARC
8
0
10
48.8247713
20
1.9894168
40
1.3019934
50
228.7444637
51
242.332614
0
ARC
8
0
10
48.6533018
20
1.7953107
40
1.0429994
50
201.4968028
51
228.7944262
0
ARC
8
0
10
48.7383228
20
1.825629
40
1.13322
50
190.0837621
51
201.3478219
0
ARC
8
0
10
48.9454171
20
1.8629302
40
1.3436464
50
181.681343
51
190.1036045
0
ARC
8
0
10
49.1193491
20
1.8713485
40
1.5177542
50
179.9925684
51
181.8063501
0
ARC
8
0
10
49.2498083
20
1.8704575
40
1.6482139
50
176.0746519
51
179.9621837
0
ARC
8
0
10
49.4602573
20
1.8560681
40
1.8591542
50
172.5013689
51
176.0762248
0
ARC
8
0
10
49.6955489
20
1.825368
40
2.09644
50
169.4854774
51
172.5087072
0
ARC
8
0
10
49.9515977
20
1.7779139
40
2.356849
50
166.7089808
51
169.4871255
0
ARC
8
0
10
50.2332452
20
1.7115414
40
2.6462114
50
164.2346177
51
166.7123424
0
ARC
8
0
10
50.5445092
20
1.6236935
40
2.9696347
50
161.8917487
51
164.2351337
0
ARC
8
0
10
50.8833537
20
1.5130835
40
3.3260757
50
159.8176461
51
161.8949499
0
ARC
8
0
10
51.2269128
20
1.3871221
40
3.6919979
50
158.0787321
51
159.822359
0
ARC
8
0
10
51.603688
20
1.2352807
40
4.0982187
50
156.2319745
51
158.0759272
0
ARC
8
0
10
52.0007079
20
1.0609397
40
4.5318308
50
154.7900382
51
156.2377723
0
ARC
8
0
10
52.388749
20
0.8783109
40
4.9607004
50
153.4181891
51
154.7905806
0
LINE
8
DEFAULT_255_2_778
10
29.8834543
20
3.3684765
11
28.5440053
21
-3.328789
0
LINE
8
DEFAULT_255_2_778
10
28.5440063
20
3.3684765
11
31.2229105
21
3.3684765
0
LINE
8
DEFAULT_255_2_778
10
29.8834553
20
-3.328789
11
27.2045492
21
-3.328789
0
LINE
8
DEFAULT_4_2_778
10
37.2070302
20
32.2460929
11
42.1679676
21
32.2460929
0
LINE
8
DEFAULT_4_2_778
10
39.6874989
20
34.7265615
11
39.6874989
21
32.2460929
0
LINE
8
DEFAULT_4_2_778
10
37.2070302
20
-12.4023434
11
42.1679676
21
-12.4023434
0
LINE
8
DEFAULT_4_2_778
10
39.6874989
20
-12.4023434
11
39.6874989
21
-14.8828121
0
ENDSEC
0
EOF