0
SECTION
2
HEADER
0
ENDSEC
0
SECTION
2
TABLES
0
TABLE
2
LTYPE
0
LTYPE
72
65
70
64
2
CONTINUOUS
3
______
73
0
40
0
0
ENDTAB
0
TABLE
2
LAYER
0
LAYER
2
DEFAULT_255_2_778
70
0
62
255
6
CONTINUOUS
0
LAYER
2
DEFAULT_4_2_778
70
0
62
4
6
CONTINUOUS
0
ENDTAB
0
ENDSEC
0
SECTION
2
ENTITIES
0
ARC
8
0
10
40.1468239
20
9.9260624
40
22.7835435
50
174.2449318
51
180.0105312
0
ARC
8
0
10
39.7634279
20
9.9642168
40
22.3982538
50
167.5259685
51
174.2436953
0
ARC
8
0
10
39.5696087
20
10.0059727
40
22.1999908
50
159.6161515
51
167.5231445
0
ARC
8
0
10
39.5582724
20
10.0084485
40
22.188502
50
149.8183066
51
159.6119483
0
ARC
8
0
10
39.6708794
20
9.9385389
40
22.3209903
50
120.3822903
51
149.8085012
0
ARC
8
0
10
39.6014634
20
10.0499432
40
22.1897773
50
110.5569837
51
120.3731537
0
ARC
8
0
10
39.602213
20
10.0435482
40
22.1960285
50
102.9024208
51
110.552999
0
ARC
8
0
10
39.6410088
20
9.8700309
40
22.3738277
50
96.4609424
51
102.9000427
0
ARC
8
0
10
39.6797671
20
9.5225794
40
22.7234337
50
90.7993121
51
96.4594669
0
ARC
8
0
10
39.6874215
20
9.2403502
40
23.0057426
50
89.9998073
51
90.8085682
0
ARC
8
0
10
39.6916866
20
9.4625318
40
22.7835614
50
84.2449339
51
90.0105312
0
ARC
8
0
10
39.7298413
20
9.8459318
40
22.3982678
50
77.5259724
51
84.2436971
0
ARC
8
0
10
39.7715978
20
10.0397549
40
22.2000007
50
69.6161568
51
77.5231478
0
ARC
8
0
10
39.7740797
20
10.0511094
40
22.1884928
50
59.8183055
51
69.6119519
0
ARC
8
0
10
39.704171
20
9.9385028
40
22.3209803
50
30.3822798
51
59.8085017
0
ARC
8
0
10
39.8155697
20
10.0079132
40
22.189775
50
20.556978
51
30.3731484
0
ARC
8
0
10
39.8091734
20
10.0071637
40
22.1960271
50
12.9024133
51
20.5529917
0
ARC
8
0
10
39.6355938
20
9.9683561
40
22.3738897
50
6.4609469
51
12.9000293
0
ARC
8
0
10
39.2882037
20
9.9296065
40
22.7234337
50
0.7993121
51
6.4594669
0
ARC
8
0
10
39.0059744
20
9.9219521
40
23.0057426
50
359.9998073
51
0.8085682
0
ARC
8
0
10
39.2281813
20
9.917687
40
22.7835361
50
354.2449308
51
0.0105312
0
ARC
8
0
10
39.6115762
20
9.8795327
40
22.3982476
50
347.5259666
51
354.2436944
0
ARC
8
0
10
39.8053913
20
9.8377741
40
22.1999881
50
339.6161586
51
347.5231518
0
ARC
8
0
10
39.8167281
20
9.8352987
40
22.1884991
50
329.8183118
51
339.611954
0
ARC
8
0
10
39.7041218
20
9.9052057
40
22.3209858
50
300.3822957
51
329.8085113
0
ARC
8
0
10
39.773534
20
9.7938104
40
22.1897822
50
290.5569871
51
300.3731558
0
ARC
8
0
10
39.7727864
20
9.8001975
40
22.196025
50
282.9024235
51
290.5530045
0
ARC
8
0
10
39.7339893
20
9.9737328
40
22.3738418
50
276.4609404
51
282.9000386
0
ARC
8
0
10
39.6952238
20
10.3212658
40
22.7235297
50
270.7993264
51
276.4594597
0
ARC
8
0
10
39.6875763
20
10.6034103
40
23.0057537
50
269.9998073
51
270.8085681
0
ARC
8
0
10
39.6833112
20
10.3811997
40
22.7835435
50
264.2449318
51
270.0105312
0
ARC
8
0
10
39.6451494
20
9.9977468
40
22.3981965
50
257.5259556
51
264.2436996
0
ARC
8
0
10
39.603401
20
9.803985
40
22.1999911
50
249.6161515
51
257.5231445
0
ARC
8
0
10
39.6009276
20
9.7926489
40
22.1885033
50
239.8183013
51
249.6119427
0
ARC
8
0
10
39.670837
20
9.9052578
40
22.3209934
50
210.3822911
51
239.8084989
0
ARC
8
0
10
39.55943
20
9.8358399
40
22.1897769
50
200.5569837
51
210.3731537
0
ARC
8
0
10
39.5658241
20
9.8365892
40
22.1960271
50
192.9024208
51
200.5529991
0
ARC
8
0
10
39.7393492
20
9.8753865
40
22.3738342
50
186.4609444
51
192.9000421
0
ARC
8
0
10
40.0867869
20
9.9141429
40
22.7234264
50
180.7993122
51
186.4594681
0
ARC
8
0
10
40.3690197
20
9.9217974
40
23.0057389
50
179.9998073
51
180.8085682
0
LINE
8
DEFAULT_255_2_778
10
17.3632808
20
9.9218747
11
17.3632808
21
9.9218747
0
LINE
8
DEFAULT_255_2_778
10
34.1064444
20
4.3408202
11
34.1064444
21
-0.868164
0
LINE
8
DEFAULT_255_2_778
10
34.1064444
20
-0.868164
11
35.5537962
21
-3.1005859
0
LINE
8
DEFAULT_255_2_778
10
35.5537962
20
-3.1005859
11
38.8614956
21
-3.1005859
0
LINE
8
DEFAULT_255_2_778
10
38.8614956
20
-3.1005859
11
40.3076161
21
-0.868164
0
LINE
8
DEFAULT_255_2_778
10
40.3076161
20
-0.868164
11
40.3076161
21
4.3408202
0
LINE
8
DEFAULT_255_2_778
10
45.2685534
20
1.8603515
11
45.2685534
21
-4.3408202
0
LINE
8
DEFAULT_255_2_778
10
45.2685534
20
-4.3408202
11
43.6153235
21
-4.3408202
0
LINE
8
DEFAULT_255_2_778
10
43.6153235
20
-4.3408202
11
42.7880847
21
-3.9278205
0
LINE
8
DEFAULT_255_2_778
10
42.7880847
20
-3.9278205
11
42.7880847
21
-2.2745906
0
LINE
8
DEFAULT_255_2_778
10
42.7880847
20
-2.2745906
11
43.6153235
21
-1.8615909
0
LINE
8
DEFAULT_255_2_778
10
43.6153235
20
-1.8615909
11
45.2685534
21
-1.8615909
0
LINE
8
DEFAULT_4_2_778
10
37.2070302
20
32.2460929
11
42.1679676
21
32.2460929
0
LINE
8
DEFAULT_4_2_778
10
39.6874989
20
34.7265615
11
39.6874989
21
32.2460929
0
LINE
8
DEFAULT_4_2_778
10
37.2070302
20
-12.4023434
11
42.1679676
21
-12.4023434
0
LINE
8
DEFAULT_4_2_778
10
39.6874989
20
-12.4023434
11
39.6874989
21
-14.8828121
0
ENDSEC
0
EOF