0
SECTION
2
HEADER
0
ENDSEC
0
SECTION
2
TABLES
0
TABLE
2
LTYPE
0
LTYPE
72
65
70
64
2
CONTINUOUS
3
______
73
0
40
0
0
ENDTAB
0
TABLE
2
LAYER
0
LAYER
2
DEFAULT_255_2_778
70
0
62
255
6
CONTINUOUS
0
LAYER
2
DEFAULT_4_2_778
70
0
62
4
6
CONTINUOUS
0
ENDTAB
0
ENDSEC
0
SECTION
2
ENTITIES
0
ARC
8
0
10
40.1468239
20
9.9260624
40
22.7835435
50
174.2449318
51
180.0105312
0
ARC
8
0
10
39.7634279
20
9.9642168
40
22.3982538
50
167.5259685
51
174.2436953
0
ARC
8
0
10
39.5696087
20
10.0059727
40
22.1999908
50
159.6161515
51
167.5231445
0
ARC
8
0
10
39.5582724
20
10.0084485
40
22.188502
50
149.8183066
51
159.6119483
0
ARC
8
0
10
39.6708794
20
9.9385389
40
22.3209903
50
120.3822903
51
149.8085012
0
ARC
8
0
10
39.6014634
20
10.0499432
40
22.1897773
50
110.5569837
51
120.3731537
0
ARC
8
0
10
39.602213
20
10.0435482
40
22.1960285
50
102.9024208
51
110.552999
0
ARC
8
0
10
39.6410088
20
9.8700309
40
22.3738277
50
96.4609424
51
102.9000427
0
ARC
8
0
10
39.6797671
20
9.5225794
40
22.7234337
50
90.7993121
51
96.4594669
0
ARC
8
0
10
39.6874215
20
9.2403502
40
23.0057426
50
89.9998073
51
90.8085682
0
ARC
8
0
10
39.6916866
20
9.4625318
40
22.7835614
50
84.2449339
51
90.0105312
0
ARC
8
0
10
39.7298413
20
9.8459318
40
22.3982678
50
77.5259724
51
84.2436971
0
ARC
8
0
10
39.7715978
20
10.0397549
40
22.2000007
50
69.6161568
51
77.5231478
0
ARC
8
0
10
39.7740797
20
10.0511094
40
22.1884928
50
59.8183055
51
69.6119519
0
ARC
8
0
10
39.704171
20
9.9385028
40
22.3209803
50
30.3822798
51
59.8085017
0
ARC
8
0
10
39.8155697
20
10.0079132
40
22.189775
50
20.556978
51
30.3731484
0
ARC
8
0
10
39.8091734
20
10.0071637
40
22.1960271
50
12.9024133
51
20.5529917
0
ARC
8
0
10
39.6355938
20
9.9683561
40
22.3738897
50
6.4609469
51
12.9000293
0
ARC
8
0
10
39.2882037
20
9.9296065
40
22.7234337
50
0.7993121
51
6.4594669
0
ARC
8
0
10
39.0059744
20
9.9219521
40
23.0057426
50
359.9998073
51
0.8085682
0
ARC
8
0
10
39.2281813
20
9.917687
40
22.7835361
50
354.2449308
51
0.0105312
0
ARC
8
0
10
39.6115762
20
9.8795327
40
22.3982476
50
347.5259666
51
354.2436944
0
ARC
8
0
10
39.8053913
20
9.8377741
40
22.1999881
50
339.6161586
51
347.5231518
0
ARC
8
0
10
39.8167281
20
9.8352987
40
22.1884991
50
329.8183118
51
339.611954
0
ARC
8
0
10
39.7041218
20
9.9052057
40
22.3209858
50
300.3822957
51
329.8085113
0
ARC
8
0
10
39.773534
20
9.7938104
40
22.1897822
50
290.5569871
51
300.3731558
0
ARC
8
0
10
39.7727864
20
9.8001975
40
22.196025
50
282.9024235
51
290.5530045
0
ARC
8
0
10
39.7339893
20
9.9737328
40
22.3738418
50
276.4609404
51
282.9000386
0
ARC
8
0
10
39.6952238
20
10.3212658
40
22.7235297
50
270.7993264
51
276.4594597
0
ARC
8
0
10
39.6875763
20
10.6034103
40
23.0057537
50
269.9998073
51
270.8085681
0
ARC
8
0
10
39.6833112
20
10.3811997
40
22.7835435
50
264.2449318
51
270.0105312
0
ARC
8
0
10
39.6451494
20
9.9977468
40
22.3981965
50
257.5259556
51
264.2436996
0
ARC
8
0
10
39.603401
20
9.803985
40
22.1999911
50
249.6161515
51
257.5231445
0
ARC
8
0
10
39.6009276
20
9.7926489
40
22.1885033
50
239.8183013
51
249.6119427
0
ARC
8
0
10
39.670837
20
9.9052578
40
22.3209934
50
210.3822911
51
239.8084989
0
ARC
8
0
10
39.55943
20
9.8358399
40
22.1897769
50
200.5569837
51
210.3731537
0
ARC
8
0
10
39.5658241
20
9.8365892
40
22.1960271
50
192.9024208
51
200.5529991
0
ARC
8
0
10
39.7393492
20
9.8753865
40
22.3738342
50
186.4609444
51
192.9000421
0
ARC
8
0
10
40.0867869
20
9.9141429
40
22.7234264
50
180.7993122
51
186.4594681
0
ARC
8
0
10
40.3690197
20
9.9217974
40
23.0057389
50
179.9998073
51
180.8085682
0
LINE
8
DEFAULT_255_2_778
10
17.3632808
20
9.9218747
11
17.3632808
21
9.9218747
0
ARC
8
0
10
32.5168334
20
17.4280623
40
3.7315532
50
54.9218492
51
60.3879346
0
ARC
8
0
10
33.0903227
20
18.2407954
40
2.7368581
50
47.7382863
51
54.9690273
0
ARC
8
0
10
33.5997564
20
18.7977769
40
1.982045
50
37.7888022
51
47.8088746
0
ARC
8
0
10
34.0191473
20
19.1194631
40
1.4534993
50
22.3660029
51
37.8976945
0
ARC
8
0
10
34.2153265
20
19.2057692
40
1.2392477
50
359.8861203
51
22.1272921
0
ARC
8
0
10
34.0502976
20
19.2069122
40
1.4042789
50
348.9674024
51
359.8528672
0
ARC
8
0
10
33.7658643
20
19.2609605
40
1.6937991
50
341.5247729
51
349.0141466
0
ARC
8
0
10
33.404569
20
19.3812953
40
2.0746069
50
335.2924029
51
341.5347062
0
ARC
8
0
10
33.1063085
20
19.5140855
40
2.4010705
50
333.4222691
51
335.3887024
0
ARC
8
0
10
46.3898826
20
12.575339
40
12.5860128
50
152.2281384
51
153.66187
0
ARC
8
0
10
45.1734051
20
13.1772891
40
11.2287503
50
153.6605982
51
155.2119403
0
ARC
8
0
10
44.0552277
20
13.6935117
40
9.9971634
50
155.2110811
51
156.8635373
0
ARC
8
0
10
43.0826609
20
14.1094392
40
8.9393915
50
156.8656639
51
158.4613443
0
ARC
8
0
10
42.1688871
20
14.4691339
40
7.9573722
50
158.4548967
51
160.4502051
0
ARC
8
0
10
41.270846
20
14.7877422
40
7.0044878
50
160.4480204
51
162.6369864
0
ARC
8
0
10
40.4780682
20
15.0357296
40
6.1738287
50
162.637942
51
164.8824038
0
ARC
8
0
10
39.7838403
20
15.2231066
40
5.4547581
50
164.8806913
51
167.3171704
0
ARC
8
0
10
39.1419715
20
15.3670521
40
4.7969469
50
167.3113002
51
170.1476025
0
ARC
8
0
10
38.5396716
20
15.4711686
40
4.1857144
50
170.1410466
51
173.4393569
0
ARC
8
0
10
38.0060167
20
15.5324573
40
3.6485518
50
173.4380191
51
177.0045244
0
ARC
8
0
10
37.6036419
20
15.5543979
40
3.2455802
50
177.0201229
51
179.9754396
0
ARC
8
0
10
37.1731427
20
15.5510412
40
2.8150845
50
179.9033644
51
186.2661877
0
ARC
8
0
10
36.7194135
20
15.5003743
40
2.3585361
50
186.2457657
51
194.2608312
0
ARC
8
0
10
36.3995341
20
15.4189924
40
2.0284666
50
194.2586824
51
204.1451589
0
ARC
8
0
10
36.2387791
20
15.3480155
40
1.8527429
50
204.1757602
51
217.6188068
0
ARC
8
0
10
36.3947392
20
15.497584
40
2.0677057
50
218.2637036
51
244.2136239
0
ARC
8
0
10
36.8309932
20
16.3670103
40
3.0403695
50
243.938532
51
258.8638538
0
ARC
8
0
10
37.0018256
20
17.1056714
40
3.798199
50
258.48748
51
263.161538
0
ARC
8
0
10
37.0347502
20
17.3679103
40
4.0624927
50
263.1408696
51
266.6758335
0
ARC
8
0
10
37.039992
20
17.4464804
40
4.1412346
50
266.666465
51
269.1780103
0
ARC
8
0
10
37.0396118
20
17.42036
40
4.1151114
50
269.1780862
51
269.9997124
0
LINE
8
0
10
37.0395912
20
13.3052487
11
38.6022864
21
13.3052487
0
ARC
8
0
10
89.1102967
20
3.4327461
40
51.4638262
50
167.9951534
51
168.9401766
0
ARC
8
0
10
82.3425503
20
4.8750338
40
44.5441028
50
166.8420648
51
167.9991297
0
ARC
8
0
10
76.1450441
20
6.3238337
40
38.1795053
50
165.6298564
51
166.8420465
0
ARC
8
0
10
70.607594
20
7.7451768
40
32.4625511
50
164.1865877
51
165.6343751
0
ARC
8
0
10
65.7072599
20
9.1331392
40
27.3694467
50
162.6531006
51
164.1867257
0
ARC
8
0
10
61.6701892
20
10.3940489
40
23.1400457
50
161.0447961
51
162.6528081
0
ARC
8
0
10
58.3600107
20
11.530789
40
19.6401227
50
159.3627059
51
161.0443776
0
ARC
8
0
10
55.3418992
20
12.6713409
40
16.4136943
50
157.1541056
51
159.375367
0
ARC
8
0
10
52.5021283
20
13.8704699
40
13.3311303
50
154.4595861
51
157.1648857
0
ARC
8
0
10
50.066527
20
15.0366061
40
10.6307559
50
151.2339224
51
154.4707923
0
ARC
8
0
10
48.1214086
20
16.1052956
40
8.4113909
50
147.5779574
51
151.2390028
0
ARC
8
0
10
46.5753598
20
17.0906692
40
6.5780285
50
142.9380393
51
147.6028573
0
ARC
8
0
10
45.3753274
20
17.9990333
40
5.0729705
50
137.296873
51
142.9564116
0
ARC
8
0
10
44.5030237
20
18.8077521
40
3.8834622
50
129.9174847
51
137.3369017
0
ARC
8
0
10
43.9131313
20
19.5177444
40
2.9603972
50
119.6373885
51
129.9786647
0
ARC
8
0
10
43.5958231
20
20.0832922
40
2.31193
50
102.5255167
51
119.7333728
0
ARC
8
0
10
43.5527695
20
20.233735
40
2.1557511
50
89.9521991
51
102.2756367
0
ARC
8
0
10
43.5531493
20
20.0988863
40
2.2905995
50
83.5836313
51
89.9645127
0
ARC
8
0
10
43.5326074
20
19.9137573
40
2.4768646
50
78.6231965
51
83.5900039
0
ARC
8
0
10
43.4886209
20
19.6941262
40
2.7008569
50
74.4489625
51
78.6274877
0
ARC
8
0
10
43.4187284
20
19.4424751
40
2.9620335
50
70.7680774
51
74.4515337
0
ARC
8
0
10
43.3681192
20
19.2925089
40
3.1203015
50
70.5605704
51
70.7976946
0
ARC
8
0
10
37.7284987
20
8.857866
40
14.9513481
50
60.8077697
51
63.4707513
0
ARC
8
0
10
38.8098447
20
10.7936334
40
12.734029
50
57.9988642
51
60.8070891
0
ARC
8
0
10
39.8411684
20
12.4396499
40
10.7916097
50
54.5420475
51
58.0111698
0
ARC
8
0
10
40.8531812
20
13.858359
40
9.0489385
50
50.4991433
51
54.5504412
0
ARC
8
0
10
41.7935906
20
14.9973087
40
7.571923
50
45.7690978
51
50.5079193
0
ARC
8
0
10
42.6608938
20
15.8856394
40
6.330415
50
39.9446006
51
45.7853538
0
ARC
8
0
10
43.4369216
20
16.5338394
40
5.3192868
50
32.7631026
51
39.9585324
0
ARC
8
0
10
44.0959085
20
16.9552046
40
4.5371064
50
22.7357541
51
32.7920141
0
ARC
8
0
10
44.4868216
20
17.1228615
40
4.1117737
50
359.8401385
51
22.6863032
0
ARC
8
0
10
44.0435439
20
17.1147747
40
4.5550366
50
353.9241738
51
359.9574158
0
ARC
8
0
10
43.5966546
20
17.1617405
40
5.0043866
50
349.0685934
51
353.9310301
0
ARC
8
0
10
43.0787803
20
17.2611515
40
5.5317157
50
345.0140129
51
349.0748001
0
ARC
8
0
10
42.4980306
20
17.4162113
40
6.1328092
50
341.4637286
51
345.0176169
0
ARC
8
0
10
41.8486977
20
17.6336306
40
6.8175751
50
338.2786324
51
341.4661326
0
ARC
8
0
10
41.1305797
20
17.9193491
40
7.5904454
50
335.419917
51
338.2811963
0
ARC
8
0
10
40.6107914
20
18.1535589
40
8.1605544
50
334.53385
51
335.442579
0
ARC
8
0
10
43.3442319
20
16.9751533
40
5.1872048
50
322.1979036
51
333.3031914
0
ARC
8
0
10
42.5552164
20
17.5827794
40
6.1830686
50
314.3688931
51
322.2304363
0
ARC
8
0
10
41.6353142
20
18.5187292
40
7.4954001
50
308.2674471
51
314.3926491
0
ARC
8
0
10
40.6224496
20
19.798667
40
9.1276164
50
303.2590565
51
308.2832713
0
ARC
8
0
10
39.533345
20
21.4548685
40
11.1098241
50
299.0611179
51
303.2714635
0
ARC
8
0
10
38.4179968
20
23.4543042
40
13.3993074
50
295.6821873
51
299.0770147
0
ARC
8
0
10
37.2609447
20
25.8592946
40
16.068155
50
292.5822585
51
295.6838874
0
ARC
8
0
10
36.0563363
20
28.7484682
40
19.1983945
50
289.9612444
51
292.5905557
0
ARC
8
0
10
34.8382232
20
32.0980465
40
22.7625875
50
287.6177695
51
289.9648679
0
ARC
8
0
10
104.2505874
20
6.2469543
40
62.6608997
50
176.1969212
51
176.7936786
0
ARC
8
0
10
119.1331743
20
5.4125769
40
77.5668575
50
176.7931885
51
177.3404802
0
ARC
8
0
10
136.7809886
20
4.5905982
40
95.233804
50
177.3391432
51
177.8173815
0
ARC
8
0
10
155.8074432
20
3.8607358
40
114.2742518
50
177.8150166
51
178.1923061
0
ARC
8
0
10
174.6086843
20
3.2635325
40
133.0849752
50
178.1906609
51
178.4888927
0
ARC
8
0
10
192.6778996
20
2.7841818
40
151.1605473
50
178.4878749
51
178.7275821
0
ARC
8
0
10
213.9531175
20
2.3155173
40
172.4409264
50
178.7288745
51
179.0170357
0
ARC
8
0
10
241.5724196
20
1.8423476
40
200.0642813
50
179.0172398
51
179.2999776
0
ARC
8
0
10
269.1829978
20
1.498313
40
227.677002
50
179.2982966
51
179.4928314
0
ARC
8
0
10
298.8929723
20
1.2398173
40
257.3881007
50
179.4938323
51
179.7291241
0
ARC
8
0
10
335.0118306
20
1.0669632
40
293.5073724
50
179.7287152
51
179.9365833
0
ARC
8
0
10
360.0198746
20
1.0283397
40
318.5154439
50
179.9346147
51
180.0002538
0
ARC
8
0
10
30.5010157
20
1.0140545
40
11.0034225
50
356.9703854
51
0.0670371
0
ARC
8
0
10
33.1321984
20
0.872951
40
8.36846
50
353.2916111
51
356.9830014
0
ARC
8
0
10
35.2342608
20
0.6229305
40
6.2515835
50
348.6685397
51
353.3168512
0
ARC
8
0
10
36.8961195
20
0.2865979
40
4.5560365
50
342.6279439
51
348.7093719
0
ARC
8
0
10
38.131935
20
-0.1029095
40
3.2602953
50
334.6907998
51
342.6763834
0
ARC
8
0
10
38.9794463
20
-0.5074731
40
2.3211836
50
323.4605136
51
334.7751572
0
ARC
8
0
10
39.4899691
20
-0.8931273
40
1.6814067
50
302.8588742
51
323.661539
0
ARC
8
0
10
39.5381936
20
-0.9315723
40
1.6230663
50
277.4374203
51
302.1651968
0
ARC
8
0
10
39.4789998
20
-0.6285759
40
1.9312739
50
277.1235957
51
278.015199
0
ARC
8
0
10
39.7037425
20
-1.1520441
40
1.3929762
50
248.9757435
51
270.6069066
0
ARC
8
0
10
39.6965342
20
-1.2244194
40
1.322973
50
221.1823265
51
248.1425852
0
ARC
8
0
10
40.1240094
20
-0.8365954
40
1.9000926
50
208.8309313
51
221.4962069
0
ARC
8
0
10
40.8939532
20
-0.405864
40
2.7823158
50
200.456968
51
208.9555857
0
ARC
8
0
10
42.0381347
20
0.0262968
40
4.0053845
50
194.3488489
51
200.5286456
0
ARC
8
0
10
43.6225471
20
0.4353464
40
5.6417447
50
189.5628726
51
194.3857359
0
ARC
8
0
10
45.6761681
20
0.7862432
40
7.7251244
50
185.932545
51
189.5988668
0
ARC
8
0
10
48.1788643
20
1.0499361
40
10.2416721
50
183.028845
51
185.9527299
0
ARC
8
0
10
51.160313
20
1.2109035
40
13.2274616
50
180.6654736
51
183.042735
0
ARC
8
0
10
53.4485721
20
1.2489398
40
15.5160124
50
179.9954689
51
180.7077802
0
ARC
8
0
10
156.6502817
20
5.8187954
40
118.8055968
50
181.9730303
51
182.203833
0
ARC
8
0
10
149.1245781
20
5.559019
40
111.275411
50
181.7617588
51
181.9727628
0
ARC
8
0
10
141.4568445
20
5.324832
40
103.6041022
50
181.4722419
51
181.7626757
0
ARC
8
0
10
132.8317171
20
5.104079
40
94.9761504
50
181.1393727
51
181.4727982
0
ARC
8
0
10
125.4759593
20
4.9561762
40
87.6189059
50
180.8744923
51
181.1383212
0
ARC
8
0
10
118.4933771
20
4.8513871
40
80.6355378
50
180.5097214
51
180.875766
0
ARC
8
0
10
111.2070195
20
4.7865769
40
73.3488918
50
180.133759
51
180.5097318
0
ARC
8
0
10
106.6052999
20
4.7727472
40
68.7471523
50
180.0002785
51
180.1311863
0
ARC
8
0
10
100.839846
20
4.7805657
40
62.9816989
50
179.3906898
51
180.0074167
0
ARC
8
0
10
91.9673843
20
4.8760898
40
54.1087231
50
178.697299
51
179.3919251
0
ARC
8
0
10
84.4083273
20
5.0468977
40
46.5477365
50
178.0240256
51
178.6959606
0
ARC
8
0
10
78.4184527
20
5.2526551
40
40.554329
50
177.3782332
51
178.0227565
0
ARC
8
0
10
72.5721064
20
5.5243875
40
34.7016726
50
176.4462679
51
177.3848731
0
ARC
8
0
10
66.6402848
20
5.8941097
40
28.7583403
50
175.3684524
51
176.4489175
0
ARC
8
0
10
61.872707
20
6.2785353
40
23.9752893
50
174.3680175
51
175.3641487
0
ARC
8
0
10
57.8702118
20
6.6754491
40
19.9531626
50
173.1077304
51
174.3743327
0
ARC
8
0
10
54.1093073
20
7.1316592
40
16.1646897
50
171.5950844
51
173.1133798
0
ARC
8
0
10
51.4512108
20
7.5203893
40
13.4783225
50
170.5499261
51
171.5781939
0
ARC
8
0
10
38.145117
20
27.5986798
40
17.8653132
50
267.5150165
51
270.0342679
0
ARC
8
0
10
38.0238277
20
24.8320034
40
15.0959798
50
264.6647921
51
267.5196429
0
ARC
8
0
10
37.8009775
20
22.4561372
40
12.7096852
50
261.4539431
51
264.6691692
0
ARC
8
0
10
37.4918044
20
20.4111528
40
10.6414624
50
257.6464389
51
261.4638857
0
ARC
8
0
10
37.1100982
20
18.6745845
40
8.8634393
50
253.2004445
51
257.655104
0
ARC
8
0
10
36.6700833
20
17.2254544
40
7.348981
50
247.6641751
51
253.2191709
0
ARC
8
0
10
36.1960691
20
16.0750095
40
6.1047096
50
240.9905078
51
247.6758231
0
ARC
8
0
10
35.7175685
20
15.2177525
40
5.1229542
50
231.9365164
51
241.0211182
0
ARC
8
0
10
35.2485175
20
14.6345071
40
4.3745734
50
203.8915034
51
232.0636449
0
ARC
8
0
10
35.8335181
20
14.8981491
40
5.016226
50
194.570238
51
203.9385943
0
ARC
8
0
10
36.7472549
20
15.1384719
40
5.9610349
50
187.6237102
51
194.5964623
0
ARC
8
0
10
37.9524956
20
15.3016382
40
7.177269
50
181.9454869
51
187.6383102
0
ARC
8
0
10
38.9921564
20
15.3478877
40
8.2179078
50
179.9868376
51
182.0216756
0
ARC
8
0
10
39.6148624
20
15.3483225
40
8.8406136
50
178.3387123
51
179.9905829
0
ARC
8
0
10
40.2698649
20
15.3290737
40
9.495899
50
176.6145759
51
178.3371943
0
ARC
8
0
10
41.0175254
20
15.2848546
40
10.2448659
50
174.956532
51
176.6146274
0
ARC
8
0
10
41.8415894
20
15.212122
40
11.0721333
50
173.3574987
51
174.9564994
0
ARC
8
0
10
42.6534697
20
15.1183247
40
11.8894137
50
172.1157825
51
173.3610928
0
ARC
8
0
10
43.4835534
20
15.0030565
40
12.7274625
50
170.7755667
51
172.1143663
0
ARC
8
0
10
44.4421822
20
14.8472953
40
13.6986632
50
169.4473714
51
170.7752457
0
ARC
8
0
10
45.276296
20
14.6932891
40
14.5468743
50
168.6873353
51
169.452716
0
ARC
8
0
10
43.5296062
20
14.0806957
40
12.9885895
50
162.0312734
51
164.5224261
0
ARC
8
0
10
40.9344623
20
14.9238361
40
10.2599167
50
159.1321612
51
162.0392032
0
ARC
8
0
10
38.7994753
20
15.7401161
40
7.9742054
50
155.5769242
51
159.1481441
0
ARC
8
0
10
37.0776482
20
16.5241735
40
6.0822675
50
151.2214746
51
155.5954999
0
ARC
8
0
10
35.7677773
20
17.2452902
40
4.5870189
50
145.9481626
51
151.2395201
0
ARC
8
0
10
34.7928147
20
17.9077173
40
3.4083119
50
138.9132767
51
145.9972213
0
ARC
8
0
10
34.1098878
20
18.5066662
40
2.4999509
50
129.3406685
51
138.9732608
0
ARC
8
0
10
33.7026411
20
19.0089164
40
1.8533529
50
114.5587214
51
129.4467281
0
ARC
8
0
10
33.5811688
20
19.2610876
40
1.5735172
50
89.8314329
51
114.352093
0
ARC
8
0
10
33.5835666
20
19.0636278
40
1.7709715
50
82.3270636
51
89.9278047
0
ARC
8
0
10
33.5521996
20
18.8264042
40
2.0102592
50
76.5820788
51
82.3438057
0
ARC
8
0
10
33.4842073
20
18.5404766
40
2.3041598
50
71.6557763
51
76.5873952
0
ARC
8
0
10
33.3838118
20
18.2343261
40
2.6263498
50
68.1639673
51
71.6788935
0
ARC
8
0
10
39.261169
20
12.256752
40
7.8148887
50
52.437097
51
55.0604142
0
ARC
8
0
10
40.3374532
20
13.6540179
40
6.0511606
50
49.2829684
51
52.4497442
0
ARC
8
0
10
41.3128962
20
14.7838965
40
4.5584757
50
45.1800085
51
49.3116403
0
ARC
8
0
10
42.1767315
20
15.6507565
40
3.3346891
50
39.9789096
51
45.2093211
0
ARC
8
0
10
42.903372
20
16.2575455
40
2.3880137
50
33.16557
51
40.0244898
0
ARC
8
0
10
43.4933708
20
16.6408248
40
1.684454
50
23.9183229
51
33.2310271
0
ARC
8
0
10
43.9507236
20
16.8406158
40
1.1853778
50
9.6466488
51
24.0533023
0
ARC
8
0
10
44.1692012
20
16.8828902
40
0.9629189
50
0.0716296
51
9.3452076
0
ARC
8
0
10
44.2041307
20
16.8863277
40
0.9279913
50
333.9273243
51
359.8620864
0
ARC
8
0
10
43.9695289
20
16.9957481
40
1.1868206
50
323.4144976
51
334.1602381
0
ARC
8
0
10
43.677175
20
17.211226
40
1.5500015
50
315.4991244
51
323.4598672
0
ARC
8
0
10
43.3345397
20
17.5454071
40
2.0286178
50
309.6806905
51
315.5502108
0
ARC
8
0
10
19.5314588
20
51.1096445
40
43.1709204
50
304.929289
51
305.5471099
0
ARC
8
0
10
24.5187382
20
43.9575342
40
34.451655
50
303.9969824
51
304.9395686
0
ARC
8
0
10
29.2174829
20
36.9858248
40
26.0443413
50
302.8491555
51
304.0028159
0
ARC
8
0
10
32.6656282
20
31.6487531
40
19.6902846
50
301.7086932
51
302.843892
0
ARC
8
0
10
35.2901015
20
27.3936477
40
14.6909084
50
300.1707452
51
301.723376
0
ARC
8
0
10
37.4670286
20
23.6425654
40
10.3539031
50
298.1460161
51
300.1884062
0
ARC
8
0
10
38.7925244
20
21.1752149
40
7.5530595
50
296.5973698
51
298.1091904
0
ARC
8
0
10
72.979424
20
8.657748
40
31.3398202
50
168.2017549
51
169.4024007
0
ARC
8
0
10
66.8744612
20
9.9326014
40
25.1031687
50
166.939439
51
168.2009849
0
ARC
8
0
10
61.6290187
20
11.1538644
40
19.7174352
50
165.2731187
51
166.9519388
0
ARC
8
0
10
57.1389012
20
12.3348756
40
15.0745974
50
163.3852509
51
165.2760561
0
ARC
8
0
10
53.441068
20
13.4425917
40
11.2144183
50
160.8872492
51
163.40634
0
ARC
8
0
10
50.3917127
20
14.5024149
40
7.98614
50
157.7097819
51
160.908462
0
ARC
8
0
10
48.0687026
20
15.458146
40
5.4742119
50
153.5640586
51
157.7432749
0
ARC
8
0
10
46.3839825
20
16.2995887
40
3.5910523
50
147.9667616
51
153.618673
0
ARC
8
0
10
45.2468889
20
17.0152611
40
2.2474942
50
140.0895509
51
148.0579598
0
ARC
8
0
10
44.5487706
20
17.6055337
40
1.3332999
50
127.6979437
51
140.2984929
0
ARC
8
0
10
44.3311774
20
17.8705664
40
0.9905874
50
126.8679046
51
127.1136031
0
LINE
8
DEFAULT_255_2_778
10
34.360687
20
20.6722406
11
34.360687
21
20.6722406
0
LINE
8
DEFAULT_255_2_778
10
43.7368526
20
18.663057
11
43.7368526
21
18.663057
0
LINE
8
DEFAULT_4_2_778
10
37.2070302
20
32.2460929
11
42.1679676
21
32.2460929
0
LINE
8
DEFAULT_4_2_778
10
39.6874989
20
34.7265615
11
39.6874989
21
32.2460929
0
LINE
8
DEFAULT_4_2_778
10
37.2070302
20
-12.4023434
11
42.1679676
21
-12.4023434
0
LINE
8
DEFAULT_4_2_778
10
39.6874989
20
-12.4023434
11
39.6874989
21
-14.8828121
0
ENDSEC
0
EOF