0
SECTION
2
HEADER
0
ENDSEC
0
SECTION
2
TABLES
0
TABLE
2
LTYPE
0
LTYPE
72
65
70
64
2
CONTINUOUS
3
______
73
0
40
0
0
ENDTAB
0
TABLE
2
LAYER
0
LAYER
2
DEFAULT_255_2_778
70
0
62
255
6
CONTINUOUS
0
LAYER
2
DEFAULT_4_2_778
70
0
62
4
6
CONTINUOUS
0
ENDTAB
0
ENDSEC
0
SECTION
2
ENTITIES
0
LINE
8
DEFAULT_255_2_778
10
7.441406
20
58.291014
11
69.4531231
21
58.291014
0
LINE
8
DEFAULT_255_2_778
10
69.4531231
20
58.291014
11
69.4531231
21
-3.720703
0
LINE
8
DEFAULT_255_2_778
10
69.4531231
20
-3.720703
11
7.441406
21
-3.720703
0
LINE
8
DEFAULT_255_2_778
10
7.441406
20
-3.720703
11
7.441406
21
58.291014
0
ARC
8
0
10
73.0807077
20
-2.4316797
40
24.854128
50
152.8170671
51
153.4395464
0
ARC
8
0
10
71.1745312
20
-1.4527613
40
22.7112819
50
152.1794541
51
152.8170545
0
ARC
8
0
10
69.4639607
20
-0.5500965
40
20.7771529
50
151.526799
51
152.1794522
0
ARC
8
0
10
67.9359705
20
0.2786096
40
19.0389044
50
150.8595009
51
151.5267998
0
ARC
8
0
10
66.5615652
20
1.0448509
40
17.4653366
50
150.17759
51
150.8594554
0
ARC
8
0
10
65.3262858
20
1.7528882
40
16.0415275
50
149.4811655
51
150.1774176
0
ARC
8
0
10
64.2185159
20
2.4058556
40
14.7556346
50
148.7707386
51
149.481
0
ARC
8
0
10
63.2195413
20
3.0115091
40
13.5874024
50
148.0464171
51
148.7705778
0
ARC
8
0
10
62.1130736
20
3.7031978
40
12.2825262
50
146.9322979
51
148.0524996
0
ARC
8
0
10
60.9567911
20
4.4559508
40
10.9028066
50
145.7824066
51
146.9319032
0
ARC
8
0
10
59.9704087
20
5.1266594
40
9.7099946
50
144.6048201
51
145.7820208
0
ARC
8
0
10
59.0648659
20
5.7707675
40
8.598742
50
143.1971092
51
144.6085517
0
ARC
8
0
10
58.2050415
20
6.4145324
40
7.5246233
50
141.5953506
51
143.1999527
0
ARC
8
0
10
57.4516272
20
7.0118235
40
6.5631712
50
139.9020161
51
141.5956426
0
ARC
8
0
10
56.8288871
20
7.5360528
40
5.7491557
50
138.1774983
51
139.9010322
0
ARC
8
0
10
56.2671103
20
8.0397965
40
4.9946027
50
135.9829743
51
138.186561
0
ARC
8
0
10
55.7533308
20
8.536587
40
4.2799209
50
133.5276525
51
135.9862892
0
ARC
8
0
10
55.3288677
20
8.9836507
40
3.6634512
50
130.8311984
51
133.5298603
0
ARC
8
0
10
54.9767029
20
9.391763
40
3.1244009
50
127.6906921
51
130.8380856
0
ARC
8
0
10
54.6906797
20
9.7622749
40
2.656332
50
124.1555184
51
127.6948695
0
ARC
8
0
10
54.4635453
20
10.0978826
40
2.2510886
50
119.8843141
51
124.1673913
0
ARC
8
0
10
54.2942846
20
10.3925795
40
1.9112424
50
115.0983487
51
119.886656
0
ARC
8
0
10
54.175478
20
10.6474154
40
1.6300734
50
109.055434
51
115.1161227
0
ARC
8
0
10
54.1019653
20
10.8608798
40
1.4043055
50
101.6434776
51
109.0639222
0
ARC
8
0
10
54.069997
20
11.0168864
40
1.2450574
50
91.5360871
51
101.6515269
0
ARC
8
0
10
54.0672669
20
11.0644018
40
1.1974868
50
90.0012864
51
91.4664492
0
ARC
8
0
10
54.0593088
20
10.9983053
40
1.2636081
50
64.5307281
51
89.6403744
0
ARC
8
0
10
53.8796395
20
10.5903633
40
1.7092186
50
56.0250162
51
64.9738106
0
ARC
8
0
10
53.5919452
20
10.1602111
40
2.2267091
50
49.5517788
51
56.071405
0
ARC
8
0
10
53.1513756
20
9.6414119
40
2.907336
50
44.4806914
51
49.5775212
0
ARC
8
0
10
52.5162696
20
9.0162097
40
3.7985355
50
40.3770471
51
44.4968975
0
ARC
8
0
10
51.6806411
20
8.3026205
40
4.8973897
50
37.3526757
51
40.4037004
0
ARC
8
0
10
50.5503374
20
7.4406497
40
6.3188608
50
34.5369377
51
37.3473907
0
ARC
8
0
10
48.9979489
20
6.3696107
40
8.20487
50
32.4221127
51
34.5521118
0
ARC
8
0
10
46.883266
20
5.0266604
40
10.7099447
50
30.5659512
51
32.421149
0
ARC
8
0
10
43.4770483
20
3.0172758
40
14.6646814
50
28.8979901
51
30.5581606
0
ARC
8
0
10
38.0365998
20
0.0080974
40
20.8818843
50
27.8404715
51
28.9127357
0
ARC
8
0
10
25.6010619
20
-6.5387077
40
34.9354624
50
26.8251189
51
27.8101038
0
ARC
8
0
10
-41.137633
20
-40.298362
40
109.7269567
50
26.5117133
51
26.8301426
0
ARC
8
0
10
136.7466278
20
48.3891915
40
89.0399788
50
206.4842596
51
206.9653735
0
ARC
8
0
10
84.5027037
20
21.8263557
40
30.4310104
50
206.9939266
51
208.0516903
0
ARC
8
0
10
74.2965896
20
16.3947762
40
18.8695763
50
208.0702448
51
209.3380564
0
ARC
8
0
10
69.6575001
20
13.7879178
40
13.5482172
50
209.3400117
51
210.8920746
0
ARC
8
0
10
66.8210751
20
12.0912575
40
10.2430753
50
210.8938613
51
212.6914388
0
ARC
8
0
10
64.8046637
20
10.7951171
40
7.8460165
50
212.678823
51
215.0630991
0
ARC
8
0
10
63.27957
20
9.72362
40
5.9821453
50
215.0543975
51
217.9967517
0
ARC
8
0
10
62.2036213
20
8.8832979
40
4.6169322
50
217.9987357
51
221.2895753
0
ARC
8
0
10
61.4176924
20
8.1911777
40
3.5696921
50
221.2664435
51
225.5698274
0
ARC
8
0
10
60.8366848
20
7.5974561
40
2.7389848
50
225.5545844
51
230.847151
0
ARC
8
0
10
60.4347387
20
7.1018693
40
2.10089
50
230.8140325
51
237.7707432
0
ARC
8
0
10
60.1779687
20
6.6921531
40
1.6173653
50
237.7247652
51
247.3008695
0
ARC
8
0
10
60.0397277
20
6.3469186
40
1.2455382
50
247.0391293
51
269.7512094
0
ARC
8
0
10
60.0329208
20
6.3336214
40
1.23223
50
270.0650295
51
280.7068993
0
ARC
8
0
10
60.0052511
20
6.4811004
40
1.382282
50
280.6981395
51
288.2425969
0
ARC
8
0
10
59.9383134
20
6.6850023
40
1.5968899
50
288.233398
51
294.3299693
0
ARC
8
0
10
59.8238553
20
6.9387252
40
1.8752348
50
294.3226756
51
299.4955633
0
ARC
8
0
10
59.6602992
20
7.2291866
40
2.2085786
50
299.4786435
51
303.5954901
0
ARC
8
0
10
59.4512111
20
7.5446221
40
2.5870192
50
303.5871699
51
307.0916628
0
ARC
8
0
10
59.1922879
20
7.8877447
40
3.0168728
50
307.08409
51
310.0738763
0
ARC
8
0
10
58.8646373
20
8.2770511
40
3.5257091
50
310.0754611
51
312.9401783
0
ARC
8
0
10
58.4490701
20
8.7240513
40
4.1360412
50
312.9361664
51
315.4834964
0
ARC
8
0
10
57.9521534
20
9.2131151
40
4.8332567
50
315.4795769
51
317.7340307
0
ARC
8
0
10
57.3874091
20
9.7271803
40
5.5969313
50
317.7279688
51
319.6258215
0
ARC
8
0
10
56.747069
20
10.271816
40
6.4375642
50
319.6247298
51
321.3895434
0
ARC
8
0
10
55.9979856
20
10.8702961
40
7.3963679
50
321.3879038
51
323.0025528
0
ARC
8
0
10
55.1805158
20
11.4870409
40
8.4203946
50
322.9982369
51
324.3485738
0
ARC
8
0
10
54.2719276
20
12.1386789
40
9.5385023
50
324.3489718
51
325.6705207
0
ARC
8
0
10
53.2079553
20
12.8654198
40
10.8269856
50
325.6698836
51
326.9085396
0
ARC
8
0
10
52.0774238
20
13.6030358
40
12.1768664
50
326.9051027
51
327.917285
0
ARC
8
0
10
50.9825837
20
14.2900374
40
13.4694011
50
327.9148708
51
328.7469168
0
ARC
8
0
10
49.9388075
20
14.9240279
40
14.6906351
50
328.745134
51
329.435108
0
ARC
8
0
10
48.7158295
20
15.6453397
40
16.1104818
50
329.4379998
51
330.2933289
0
ARC
8
0
10
47.1407751
20
16.5437527
40
17.9237502
50
330.2939541
51
331.1545899
0
ARC
8
0
10
45.5725056
20
17.4089094
40
19.714829
50
331.1510925
51
331.766009
0
ARC
8
0
10
44.0231779
20
18.24048
40
21.4732163
50
331.7668444
51
332.423092
0
ARC
8
0
10
42.4034929
20
19.0872111
40
23.3008741
50
332.4213239
51
332.9412835
0
ARC
8
0
10
40.8183765
20
19.8969963
40
25.080859
50
332.9411189
51
333.4378737
0
LINE
8
DEFAULT_255_2_778
10
7.441406
20
-3.720703
11
69.4531231
21
58.291014
0
LINE
8
DEFAULT_255_2_778
10
13.6425777
20
48.3691393
11
26.0449212
21
48.3691393
0
LINE
8
DEFAULT_255_2_778
10
13.6425777
20
43.4082019
11
16.1230464
21
43.4082019
0
LINE
8
DEFAULT_255_2_778
10
18.6035151
20
43.4082019
11
21.0839838
21
43.4082019
0
LINE
8
DEFAULT_255_2_778
10
23.5644525
20
43.4082019
11
26.0449212
21
43.4082019
0
LINE
8
DEFAULT_4_2_778
10
26.0449212
20
60.7714827
11
26.0449212
21
58.291014
0
LINE
8
DEFAULT_4_2_778
10
50.849608
20
60.7714827
11
50.849608
21
58.291014
0
LINE
8
DEFAULT_4_2_778
10
23.5644525
20
-3.720703
11
28.5253898
21
-3.720703
0
LINE
8
DEFAULT_4_2_778
10
26.0449212
20
-3.720703
11
26.0449212
21
-6.2011717
0
LINE
8
DEFAULT_4_2_778
10
23.5644525
20
58.291014
11
28.5253898
21
58.291014
0
LINE
8
DEFAULT_4_2_778
10
48.3691393
20
58.291014
11
53.3300766
21
58.291014
0
LINE
8
DEFAULT_4_2_778
10
48.3691393
20
-3.720703
11
53.3300766
21
-3.720703
0
LINE
8
DEFAULT_4_2_778
10
50.8496212
20
-3.7207163
11
50.8496212
21
-6.2011849
0
LINE
8
DEFAULT_4_2_778
10
69.4531363
20
42.1679543
11
69.4531363
21
37.207017
0
LINE
8
DEFAULT_4_2_778
10
69.4531231
20
39.6874989
11
71.9335917
21
39.6874989
0
ENDSEC
0
EOF