0
SECTION
2
HEADER
0
ENDSEC
0
SECTION
2
TABLES
0
TABLE
2
LTYPE
0
LTYPE
72
65
70
64
2
CONTINUOUS
3
______
73
0
40
0
0
ENDTAB
0
TABLE
2
LAYER
0
LAYER
2
DEFAULT_255_2_778
70
0
62
255
6
CONTINUOUS
0
LAYER
2
DEFAULT_4_2_778
70
0
62
4
6
CONTINUOUS
0
ENDTAB
0
ENDSEC
0
SECTION
2
ENTITIES
0
LINE
8
DEFAULT_255_2_778
10
9.9218747
20
9.9218747
11
39.6874989
21
9.9218747
0
LINE
8
DEFAULT_255_2_778
10
39.6874989
20
9.9218747
11
39.6874989
21
-19.8437494
0
LINE
8
DEFAULT_255_2_778
10
39.6874989
20
-19.8437494
11
9.9218747
21
-19.8437494
0
LINE
8
DEFAULT_255_2_778
10
9.9218747
20
-19.8437494
11
9.9218747
21
9.9218747
0
LINE
8
DEFAULT_255_2_778
10
39.6874989
20
9.9218747
11
69.4531231
21
9.9218747
0
LINE
8
DEFAULT_255_2_778
10
69.4531231
20
9.9218747
11
69.4531231
21
-19.8437494
0
LINE
8
DEFAULT_255_2_778
10
69.4531231
20
-19.8437494
11
39.6874989
21
-19.8437494
0
LINE
8
DEFAULT_255_2_778
10
39.6874989
20
-19.8437494
11
39.6874989
21
9.9218747
0
LINE
8
DEFAULT_4_2_778
10
9.9218747
20
-2.4804687
11
9.9218747
21
-7.441406
0
LINE
8
DEFAULT_4_2_778
10
7.441406
20
-4.9609374
11
9.9218747
21
-4.9609374
0
LINE
8
DEFAULT_4_2_778
10
22.3242181
20
9.9218747
11
27.2851555
21
9.9218747
0
LINE
8
DEFAULT_4_2_778
10
24.8046868
20
12.4023434
11
24.8046868
21
9.9218747
0
LINE
8
DEFAULT_4_2_778
10
22.3242181
20
-19.8437494
11
27.2851555
21
-19.8437494
0
LINE
8
DEFAULT_4_2_778
10
24.8046868
20
-19.8437494
11
24.8046868
21
-22.3242181
0
LINE
8
DEFAULT_4_2_778
10
69.4531231
20
-2.4804687
11
69.4531231
21
-7.441406
0
LINE
8
DEFAULT_4_2_778
10
69.4531231
20
-4.9609374
11
71.9335917
21
-4.9609374
0
LINE
8
DEFAULT_4_2_778
10
52.0898423
20
9.9218747
11
57.0507797
21
9.9218747
0
LINE
8
DEFAULT_4_2_778
10
54.570311
20
12.4023434
11
54.570311
21
9.9218747
0
LINE
8
DEFAULT_4_2_778
10
52.0898423
20
-19.8437494
11
57.0507797
21
-19.8437494
0
LINE
8
DEFAULT_4_2_778
10
54.570311
20
-19.8437494
11
54.570311
21
-22.3242181
0
ENDSEC
0
EOF