0
SECTION
2
HEADER
0
ENDSEC
0
SECTION
2
TABLES
0
TABLE
2
LTYPE
0
LTYPE
72
65
70
64
2
CONTINUOUS
3
______
73
0
40
0
0
ENDTAB
0
TABLE
2
LAYER
0
LAYER
2
DEFAULT_255_2_778
70
0
62
255
6
CONTINUOUS
0
LAYER
2
DEFAULT_4_2_778
70
0
62
4
6
CONTINUOUS
0
ENDTAB
0
ENDSEC
0
SECTION
2
ENTITIES
0
LINE
8
DEFAULT_255_2_778
10
24.1845696
20
67.5927716
11
57.6708968
21
67.5927716
0
LINE
8
DEFAULT_255_2_778
10
57.6708968
20
67.5927716
11
57.6708968
21
-0.6201172
0
LINE
8
DEFAULT_255_2_778
10
57.6708968
20
-0.6201172
11
24.1845696
21
-0.6201172
0
LINE
8
DEFAULT_255_2_778
10
24.1845696
20
-0.6201172
11
24.1845696
21
67.5927716
0
LINE
8
DEFAULT_255_2_778
10
24.1845696
20
32.8661968
11
57.6708968
21
32.8661968
0
LINE
8
DEFAULT_255_2_778
10
24.1845696
20
50.2294776
11
57.6708968
21
50.2294776
0
LINE
8
DEFAULT_4_2_778
10
31.6259889
20
67.5927848
11
36.5869263
21
67.5927848
0
LINE
8
DEFAULT_4_2_778
10
34.1064576
20
70.0732402
11
34.1064576
21
67.5927716
0
LINE
8
DEFAULT_4_2_778
10
31.6259889
20
-0.6201172
11
36.5869263
21
-0.6201172
0
LINE
8
DEFAULT_4_2_778
10
34.1064576
20
-0.6201172
11
34.1064576
21
-3.1005859
0
LINE
8
DEFAULT_4_2_778
10
24.1845829
20
35.3466787
11
24.1845829
21
30.3857413
0
LINE
8
DEFAULT_4_2_778
10
21.704101
20
32.8662233
11
24.1845696
21
32.8662233
0
LINE
8
DEFAULT_4_2_778
10
45.2685534
20
67.5927848
11
50.2294908
21
67.5927848
0
LINE
8
DEFAULT_4_2_778
10
47.7490353
20
70.0732402
11
47.7490353
21
67.5927716
0
LINE
8
DEFAULT_4_2_778
10
45.2685667
20
-0.6201172
11
50.229504
21
-0.6201172
0
LINE
8
DEFAULT_4_2_778
10
47.7490221
20
-0.6201304
11
47.7490221
21
-3.1005991
0
LINE
8
DEFAULT_4_2_778
10
24.1845696
20
16.7431504
11
24.1845696
21
11.782213
0
LINE
8
DEFAULT_4_2_778
10
21.7041142
20
14.2626817
11
24.1845829
21
14.2626817
0
ENDSEC
0
EOF