0
SECTION
2
HEADER
0
ENDSEC
0
SECTION
2
TABLES
0
TABLE
2
LTYPE
0
LTYPE
72
65
70
64
2
CONTINUOUS
3
______
73
0
40
0
0
ENDTAB
0
TABLE
2
LAYER
0
LAYER
2
DEFAULT_255_2_778
70
0
62
255
6
CONTINUOUS
0
LAYER
2
DEFAULT_4_2_778
70
0
62
4
6
CONTINUOUS
0
ENDTAB
0
ENDSEC
0
SECTION
2
ENTITIES
0
LINE
8
DEFAULT_255_2_778
10
36.5869263
20
43.4082019
11
68.8330191
21
43.4082019
0
LINE
8
DEFAULT_255_2_778
10
68.8330191
20
43.4082019
11
68.8330191
21
-8.6816404
0
LINE
8
DEFAULT_255_2_778
10
68.8330191
20
-8.6816404
11
36.5869263
21
-8.6816404
0
LINE
8
DEFAULT_255_2_778
10
36.5869263
20
-8.6816404
11
36.5869263
21
43.4082019
0
LINE
8
DEFAULT_255_2_778
10
68.8330191
20
26.044913
11
36.5869263
21
26.0969993
0
LINE
8
DEFAULT_4_2_778
10
61.3916131
20
-8.6816404
11
56.4306757
21
-8.6816404
0
LINE
8
DEFAULT_4_2_778
10
58.9111444
20
-8.6816404
11
58.9111444
21
-11.1621091
0
LINE
8
DEFAULT_255_2_778
10
36.5869213
20
9.9218747
11
10.6970295
21
9.9218747
0
LINE
8
DEFAULT_4_2_778
10
68.8330191
20
12.4023434
11
68.8330191
21
7.441406
0
LINE
8
DEFAULT_4_2_778
10
71.3134746
20
9.9218747
11
68.8330059
21
9.9218747
0
LINE
8
DEFAULT_4_2_778
10
10.5419919
20
12.4023434
11
10.5419919
21
7.441406
0
LINE
8
DEFAULT_4_2_778
10
8.0615364
20
9.9218747
11
10.5420051
21
9.9218747
0
LINE
8
DEFAULT_255_2_778
10
20.4638617
20
14.8828121
11
25.5798283
21
9.9218747
0
LINE
8
DEFAULT_255_2_778
10
25.5798283
20
9.9218747
11
20.4638617
21
4.9609374
0
LINE
8
DEFAULT_4_2_778
10
48.9892697
20
-8.6816404
11
44.0283323
21
-8.6816404
0
LINE
8
DEFAULT_4_2_778
10
46.508801
20
-8.6816404
11
46.508801
21
-11.1621091
0
LINE
8
DEFAULT_4_2_778
10
61.3916131
20
43.4082019
11
56.4306757
21
43.4082019
0
LINE
8
DEFAULT_4_2_778
10
58.9111444
20
43.4082019
11
58.9111444
21
45.8886706
0
LINE
8
DEFAULT_4_2_778
10
48.9892697
20
43.4082019
11
44.0283323
21
43.4082019
0
LINE
8
DEFAULT_4_2_778
10
46.508801
20
43.4082019
11
46.508801
21
45.8886706
0
LINE
8
DEFAULT_255_2_778
10
39.067395
20
0
11
66.3525504
21
0
0
ENDSEC
0
EOF