0
SECTION
2
HEADER
0
ENDSEC
0
SECTION
2
TABLES
0
TABLE
2
LTYPE
0
LTYPE
72
65
70
64
2
CONTINUOUS
3
______
73
0
40
0
0
ENDTAB
0
TABLE
2
LAYER
0
LAYER
2
DEFAULT_255_2_778
70
0
62
255
6
CONTINUOUS
0
LAYER
2
DEFAULT_4_2_778
70
0
62
4
6
CONTINUOUS
0
ENDTAB
0
ENDSEC
0
SECTION
2
ENTITIES
0
LINE
8
DEFAULT_255_2_778
10
23.5644525
20
43.4082019
11
55.8105453
21
43.4082019
0
LINE
8
DEFAULT_255_2_778
10
55.8105453
20
43.4082019
11
55.8105453
21
-8.6816404
0
LINE
8
DEFAULT_255_2_778
10
55.8105453
20
-8.6816404
11
23.5644525
21
-8.6816404
0
LINE
8
DEFAULT_255_2_778
10
23.5644525
20
-8.6816404
11
23.5644525
21
43.4082019
0
LINE
8
DEFAULT_255_2_778
10
23.5644525
20
26.044913
11
55.8105453
21
26.0969993
0
LINE
8
DEFAULT_4_2_778
10
37.2070302
20
43.4082019
11
42.1679676
21
43.4082019
0
LINE
8
DEFAULT_4_2_778
10
39.6874989
20
45.8886706
11
39.6874989
21
43.4082019
0
LINE
8
DEFAULT_4_2_778
10
37.2070302
20
-8.6816404
11
42.1679676
21
-8.6816404
0
LINE
8
DEFAULT_4_2_778
10
39.6875121
20
-8.6816404
11
39.6875121
21
-11.1621091
0
LINE
8
DEFAULT_4_2_778
10
23.5644657
20
18.6035151
11
23.5644657
21
13.6425777
0
LINE
8
DEFAULT_4_2_778
10
21.0839838
20
16.1230464
11
23.5644525
21
16.1230464
0
LINE
8
DEFAULT_4_2_778
10
55.8105453
20
18.6035151
11
55.8105453
21
13.6425777
0
LINE
8
DEFAULT_4_2_778
10
58.291014
20
16.1230464
11
55.8105453
21
16.1230464
0
LINE
8
DEFAULT_255_2_778
10
27.9486906
20
1.4436479
11
32.1592902
21
1.4436479
0
LINE
8
DEFAULT_255_2_778
10
32.1592902
20
1.4436479
11
32.9480764
21
1.989343
0
LINE
8
DEFAULT_255_2_778
10
32.9480764
20
1.989343
11
33.7381061
21
5.2635657
0
LINE
8
DEFAULT_255_2_778
10
33.7381061
20
5.2635657
11
32.6839069
21
6.3549719
0
LINE
8
DEFAULT_255_2_778
10
32.6839069
20
6.3549719
11
29.0004069
21
6.3549719
0
LINE
8
DEFAULT_255_2_778
10
29.0004069
20
6.3549719
11
26.3686312
21
-4.5615732
0
LINE
8
DEFAULT_255_2_778
10
34.4053518
20
-4.3718157
11
34.4053518
21
0.8408908
0
LINE
8
DEFAULT_255_2_778
10
34.4053518
20
0.8408908
11
35.3975392
21
1.8826877
0
LINE
8
DEFAULT_255_2_778
10
35.3975392
20
1.8826877
11
36.3897267
21
1.8826877
0
LINE
8
DEFAULT_255_2_778
10
36.3897267
20
1.8826877
11
37.3819142
21
0.8408908
0
LINE
8
DEFAULT_255_2_778
10
37.3819142
20
0.8408908
11
37.3819142
21
-4.3718157
0
LINE
8
DEFAULT_255_2_778
10
37.3943165
20
0.8396433
11
38.386504
21
1.8814442
0
LINE
8
DEFAULT_255_2_778
10
38.386504
20
1.8814442
11
39.3786915
21
1.8814442
0
LINE
8
DEFAULT_255_2_778
10
39.3786915
20
1.8814442
11
40.3708789
21
0.8396433
0
LINE
8
DEFAULT_255_2_778
10
40.3708789
20
0.8396433
11
40.3708789
21
-4.3730552
0
LINE
8
DEFAULT_255_2_778
10
46.8821092
20
0.8396433
11
45.8899218
21
1.8814442
0
LINE
8
DEFAULT_255_2_778
10
45.8899218
20
1.8814442
11
43.8807421
21
1.8814442
0
LINE
8
DEFAULT_255_2_778
10
43.8807421
20
1.8814442
11
42.8885547
21
0.8396433
0
LINE
8
DEFAULT_255_2_778
10
42.8885547
20
0.8396433
11
42.8885547
21
-3.3300189
0
LINE
8
DEFAULT_255_2_778
10
42.8885547
20
-3.3300189
11
43.8807421
21
-4.3718157
0
LINE
8
DEFAULT_255_2_778
10
43.8807421
20
-4.3718157
11
45.8899218
21
-4.3718157
0
LINE
8
DEFAULT_255_2_778
10
45.8899218
20
-4.3718157
11
46.8821092
21
-3.3300189
0
LINE
8
DEFAULT_255_2_778
10
48.9396527
20
1.8826782
11
52.9604827
21
-4.3718252
0
LINE
8
DEFAULT_255_2_778
10
46.9304649
20
1.8826782
11
46.9304649
21
-4.3718252
0
LINE
8
DEFAULT_255_2_778
10
52.9617288
20
1.8826782
11
48.9408988
21
-4.3718252
0
ENDSEC
0
EOF