0
SECTION
2
HEADER
0
ENDSEC
0
SECTION
2
TABLES
0
TABLE
2
LTYPE
0
LTYPE
72
65
70
64
2
CONTINUOUS
3
______
73
0
40
0
0
ENDTAB
0
TABLE
2
LAYER
0
LAYER
2
DEFAULT_255_2_778
70
0
62
255
6
CONTINUOUS
0
LAYER
2
DEFAULT_4_2_778
70
0
62
4
6
CONTINUOUS
0
ENDTAB
0
ENDSEC
0
SECTION
2
ENTITIES
0
LINE
8
DEFAULT_255_2_778
10
47.6028362
20
48.6424321
11
31.3226874
21
20.6952268
0
LINE
8
DEFAULT_255_2_778
10
44.6037921
20
47.6994192
11
49.7693762
21
52.1270578
0
LINE
8
DEFAULT_255_2_778
10
49.7693762
20
52.1270578
11
48.2810949
21
45.6704007
0
LINE
8
DEFAULT_255_2_778
10
48.2810949
20
45.6704007
11
44.6037921
21
47.6994192
0
ARC
8
0
10
28.5793493
20
40.2040697
40
3.1545483
50
179.9215401
51
187.3365015
0
ARC
8
0
10
28.2533137
20
40.1621297
40
2.8258262
50
187.3372522
51
196.181528
0
ARC
8
0
10
28.0664512
20
40.1084726
40
2.6314134
50
196.1933649
51
208.1569646
0
ARC
8
0
10
28.2415783
20
40.2366304
40
2.8464536
50
208.7679037
51
239.1646739
0
ARC
8
0
10
28.7245024
20
40.9763612
40
3.7293215
50
238.6193463
51
251.6769673
0
ARC
8
0
10
28.9567194
20
41.6737666
40
4.464371
50
251.6616025
51
265.55384
0
ARC
8
0
10
28.9902268
20
41.95944
40
4.7517955
50
265.4180631
51
270.0030252
0
ARC
8
0
10
28.9999485
20
41.8102674
40
4.6026325
50
269.8821027
51
285.7676746
0
ARC
8
0
10
29.1940653
20
41.1204186
40
3.885993
50
285.7771871
51
298.4378211
0
ARC
8
0
10
29.5741572
20
40.4377255
40
3.1046892
50
298.2694014
51
317.0881073
0
ARC
8
0
10
29.9050775
20
40.1153725
40
2.6428633
50
317.32175
51
335.8088122
0
ARC
8
0
10
29.875345
20
40.1230372
40
2.6731309
50
335.9201041
51
346.7658444
0
ARC
8
0
10
29.6376309
20
40.1786272
40
2.9172583
50
346.7718646
51
355.2313211
0
ARC
8
0
10
29.3347431
20
40.2064147
40
3.2214088
50
355.1866548
51
0.035123
0
ARC
8
0
10
35.7106968
20
40.2040697
40
3.1545483
50
179.9215401
51
187.3365015
0
ARC
8
0
10
35.3846611
20
40.1621297
40
2.8258262
50
187.3372522
51
196.181528
0
ARC
8
0
10
35.1977987
20
40.1084726
40
2.6314134
50
196.1933649
51
208.1569646
0
ARC
8
0
10
35.3729258
20
40.2366304
40
2.8464536
50
208.7679037
51
239.1646739
0
ARC
8
0
10
35.8558499
20
40.9763612
40
3.7293215
50
238.6193463
51
251.6769673
0
ARC
8
0
10
36.0880668
20
41.6737666
40
4.464371
50
251.6616025
51
265.55384
0
ARC
8
0
10
36.1215743
20
41.95944
40
4.7517955
50
265.4180631
51
270.0030252
0
ARC
8
0
10
36.131296
20
41.8102674
40
4.6026325
50
269.8821027
51
285.7676746
0
ARC
8
0
10
36.3254128
20
41.1204186
40
3.885993
50
285.7771871
51
298.4378211
0
ARC
8
0
10
36.7055047
20
40.4377255
40
3.1046892
50
298.2694014
51
317.0881073
0
ARC
8
0
10
37.036425
20
40.1153725
40
2.6428633
50
317.32175
51
335.8088122
0
ARC
8
0
10
37.0066924
20
40.1230372
40
2.6731309
50
335.9201041
51
346.7658444
0
ARC
8
0
10
36.7689783
20
40.1786272
40
2.9172583
50
346.7718646
51
355.2313211
0
ARC
8
0
10
36.4660906
20
40.2064147
40
3.2214088
50
355.1866548
51
0.035123
0
ARC
8
0
10
42.8420442
20
40.2040697
40
3.1545483
50
179.9215401
51
187.3365015
0
ARC
8
0
10
42.5160086
20
40.1621297
40
2.8258262
50
187.3372522
51
196.181528
0
ARC
8
0
10
42.3291461
20
40.1084726
40
2.6314134
50
196.1933649
51
208.1569646
0
ARC
8
0
10
42.5042733
20
40.2366304
40
2.8464536
50
208.7679037
51
239.1646739
0
ARC
8
0
10
42.9871973
20
40.9763612
40
3.7293215
50
238.6193463
51
251.6769673
0
ARC
8
0
10
43.2194143
20
41.6737666
40
4.464371
50
251.6616025
51
265.55384
0
ARC
8
0
10
43.2529217
20
41.95944
40
4.7517955
50
265.4180631
51
270.0030252
0
ARC
8
0
10
43.2626434
20
41.8102674
40
4.6026325
50
269.8821027
51
285.7676746
0
ARC
8
0
10
43.4567602
20
41.1204186
40
3.885993
50
285.7771871
51
298.4378211
0
ARC
8
0
10
43.8368521
20
40.4377255
40
3.1046892
50
298.2694014
51
317.0881073
0
ARC
8
0
10
44.1677724
20
40.1153725
40
2.6428633
50
317.32175
51
335.8088122
0
ARC
8
0
10
44.1380399
20
40.1230372
40
2.6731309
50
335.9201041
51
346.7658444
0
ARC
8
0
10
43.9003258
20
40.1786272
40
2.9172583
50
346.7718646
51
355.2313211
0
ARC
8
0
10
43.597438
20
40.2064147
40
3.2214088
50
355.1866548
51
0.035123
0
ARC
8
0
10
49.9733917
20
40.2040697
40
3.1545483
50
179.9215401
51
187.3365015
0
ARC
8
0
10
49.647356
20
40.1621297
40
2.8258262
50
187.3372522
51
196.181528
0
ARC
8
0
10
49.4604936
20
40.1084726
40
2.6314134
50
196.1933649
51
208.1569646
0
ARC
8
0
10
49.6356207
20
40.2366304
40
2.8464536
50
208.7679037
51
239.1646739
0
ARC
8
0
10
50.1185448
20
40.9763612
40
3.7293215
50
238.6193463
51
251.6769673
0
ARC
8
0
10
50.3507617
20
41.6737666
40
4.464371
50
251.6616025
51
265.55384
0
ARC
8
0
10
50.3842692
20
41.95944
40
4.7517955
50
265.4180631
51
270.0030252
0
ARC
8
0
10
50.3939909
20
41.8102674
40
4.6026325
50
269.8821027
51
285.7676746
0
ARC
8
0
10
50.5881077
20
41.1204186
40
3.885993
50
285.7771871
51
298.4378211
0
ARC
8
0
10
50.9681996
20
40.4377255
40
3.1046892
50
298.2694014
51
317.0881073
0
ARC
8
0
10
51.2991199
20
40.1153725
40
2.6428633
50
317.32175
51
335.8088122
0
ARC
8
0
10
51.2693873
20
40.1230372
40
2.6731309
50
335.9201041
51
346.7658444
0
ARC
8
0
10
51.0316732
20
40.1786272
40
2.9172583
50
346.7718646
51
355.2313211
0
ARC
8
0
10
50.7287855
20
40.2064147
40
3.2214088
50
355.1866548
51
0.035123
0
LINE
8
DEFAULT_255_2_778
10
25.424804
20
70.6933516
11
25.424804
21
40.2083895
0
LINE
8
DEFAULT_255_2_778
10
53.9501938
20
40.2083895
11
53.9501938
21
70.6933516
0
ARC
8
0
10
51.0224448
20
29.3604611
40
2.9277519
50
359.9194696
51
7.6157534
0
ARC
8
0
10
51.3215083
20
29.4007231
40
2.6259905
50
7.609813
51
17.5019134
0
ARC
8
0
10
51.463002
20
29.4437859
40
2.4780967
50
17.5362067
51
31.5873599
0
ARC
8
0
10
51.2269921
20
29.2697603
40
2.7704036
50
32.0965612
51
57.1985233
0
ARC
8
0
10
50.7543073
20
28.5815331
40
3.6050453
50
56.8094017
51
68.9966776
0
ARC
8
0
10
50.4779533
20
27.8678939
40
4.370322
50
68.9677183
51
80.5112655
0
ARC
8
0
10
50.3871974
20
27.3726405
40
4.8737671
50
80.4187489
51
90.0314748
0
ARC
8
0
10
50.3755806
20
27.4647369
40
4.7816785
50
89.892884
51
104.5577286
0
ARC
8
0
10
50.1914654
20
28.1773829
40
4.0456338
50
104.5708037
51
115.9572219
0
ARC
8
0
10
49.8534641
20
28.863849
40
3.2804763
50
115.8971756
51
129.6614153
0
ARC
8
0
10
49.4024894
20
29.3895006
40
2.5880061
50
129.4029023
51
157.1794928
0
ARC
8
0
10
49.3632068
20
29.4228886
40
2.5388964
50
157.530167
51
168.3455296
0
ARC
8
0
10
49.5991742
20
29.3746031
40
2.7797531
50
168.3533096
51
176.8809025
0
ARC
8
0
10
49.8533405
20
29.3571554
40
3.0344943
50
176.8130773
51
180.0152813
0
ARC
8
0
10
43.8910974
20
29.3604611
40
2.9277519
50
359.9194696
51
7.6157534
0
ARC
8
0
10
44.1901608
20
29.4007231
40
2.6259905
50
7.609813
51
17.5019134
0
ARC
8
0
10
44.3316546
20
29.4437859
40
2.4780967
50
17.5362067
51
31.5873599
0
ARC
8
0
10
44.0956447
20
29.2697603
40
2.7704036
50
32.0965612
51
57.1985233
0
ARC
8
0
10
43.6229598
20
28.5815331
40
3.6050453
50
56.8094017
51
68.9966776
0
ARC
8
0
10
43.3466058
20
27.8678939
40
4.370322
50
68.9677183
51
80.5112655
0
ARC
8
0
10
43.25585
20
27.3726405
40
4.8737671
50
80.4187489
51
90.0314748
0
ARC
8
0
10
43.2442332
20
27.4647369
40
4.7816785
50
89.892884
51
104.5577286
0
ARC
8
0
10
43.060118
20
28.1773829
40
4.0456338
50
104.5708037
51
115.9572219
0
ARC
8
0
10
42.7221166
20
28.863849
40
3.2804763
50
115.8971756
51
129.6614153
0
ARC
8
0
10
42.2711419
20
29.3895006
40
2.5880061
50
129.4029023
51
157.1794928
0
ARC
8
0
10
42.2318594
20
29.4228886
40
2.5388964
50
157.530167
51
168.3455296
0
ARC
8
0
10
42.4678267
20
29.3746031
40
2.7797531
50
168.3533096
51
176.8809025
0
ARC
8
0
10
42.7219931
20
29.3571554
40
3.0344943
50
176.8130773
51
180.0152813
0
ARC
8
0
10
36.7597499
20
29.3604611
40
2.9277519
50
359.9194696
51
7.6157534
0
ARC
8
0
10
37.0588134
20
29.4007231
40
2.6259905
50
7.609813
51
17.5019134
0
ARC
8
0
10
37.2003071
20
29.4437859
40
2.4780967
50
17.5362067
51
31.5873599
0
ARC
8
0
10
36.9642972
20
29.2697603
40
2.7704036
50
32.0965612
51
57.1985233
0
ARC
8
0
10
36.4916124
20
28.5815331
40
3.6050453
50
56.8094017
51
68.9966776
0
ARC
8
0
10
36.2152583
20
27.8678939
40
4.370322
50
68.9677183
51
80.5112655
0
ARC
8
0
10
36.1245025
20
27.3726405
40
4.8737671
50
80.4187489
51
90.0314748
0
ARC
8
0
10
36.1128857
20
27.4647369
40
4.7816785
50
89.892884
51
104.5577286
0
ARC
8
0
10
35.9287705
20
28.1773829
40
4.0456338
50
104.5708037
51
115.9572219
0
ARC
8
0
10
35.5907692
20
28.863849
40
3.2804763
50
115.8971756
51
129.6614153
0
ARC
8
0
10
35.1397944
20
29.3895006
40
2.5880061
50
129.4029023
51
157.1794928
0
ARC
8
0
10
35.1005119
20
29.4228886
40
2.5388964
50
157.530167
51
168.3455296
0
ARC
8
0
10
35.3364793
20
29.3746031
40
2.7797531
50
168.3533096
51
176.8809025
0
ARC
8
0
10
35.5906456
20
29.3571554
40
3.0344943
50
176.8130773
51
180.0152813
0
ARC
8
0
10
29.6284024
20
29.3604611
40
2.9277519
50
359.9194696
51
7.6157534
0
ARC
8
0
10
29.9274659
20
29.4007231
40
2.6259905
50
7.609813
51
17.5019134
0
ARC
8
0
10
30.0689596
20
29.4437859
40
2.4780967
50
17.5362067
51
31.5873599
0
ARC
8
0
10
29.8329498
20
29.2697603
40
2.7704036
50
32.0965612
51
57.1985233
0
ARC
8
0
10
29.3602649
20
28.5815331
40
3.6050453
50
56.8094017
51
68.9966776
0
ARC
8
0
10
29.0839109
20
27.8678939
40
4.370322
50
68.9677183
51
80.5112655
0
ARC
8
0
10
28.9931551
20
27.3726405
40
4.8737671
50
80.4187489
51
90.0314748
0
ARC
8
0
10
28.9815382
20
27.4647369
40
4.7816785
50
89.892884
51
104.5577286
0
ARC
8
0
10
28.7974231
20
28.1773829
40
4.0456338
50
104.5708037
51
115.9572219
0
ARC
8
0
10
28.4594217
20
28.863849
40
3.2804763
50
115.8971756
51
129.6614153
0
ARC
8
0
10
28.008447
20
29.3895006
40
2.5880061
50
129.4029023
51
157.1794928
0
ARC
8
0
10
27.9691645
20
29.4228886
40
2.5388964
50
157.530167
51
168.3455296
0
ARC
8
0
10
28.2051318
20
29.3746031
40
2.7797531
50
168.3533096
51
176.8809025
0
ARC
8
0
10
28.4592982
20
29.3571554
40
3.0344943
50
176.8130773
51
180.0152813
0
LINE
8
DEFAULT_255_2_778
10
53.9501938
20
0.0000033
11
53.9501938
21
29.3563461
0
LINE
8
DEFAULT_255_2_778
10
25.424804
20
29.3563461
11
25.424804
21
0.0000033
0
LINE
8
DEFAULT_4_2_778
10
51.4697384
20
69.4531231
11
56.4306757
21
69.4531231
0
LINE
8
DEFAULT_4_2_778
10
53.9501938
20
71.9335917
11
53.9501938
21
69.4531231
0
LINE
8
DEFAULT_4_2_778
10
22.9443353
20
69.4531231
11
27.9052727
21
69.4531231
0
LINE
8
DEFAULT_4_2_778
10
25.4248172
20
71.9335917
11
25.4248172
21
69.4531231
0
LINE
8
DEFAULT_4_2_778
10
22.9443485
20
0
11
27.9052859
21
0
0
LINE
8
DEFAULT_4_2_778
10
25.424804
20
0
11
25.424804
21
-2.4804687
0
LINE
8
DEFAULT_4_2_778
10
51.4697251
20
0
11
56.4306625
21
0
0
LINE
8
DEFAULT_4_2_778
10
53.950207
20
0
11
53.950207
21
-2.4804687
0
ENDSEC
0
EOF