0
SECTION
2
HEADER
0
ENDSEC
0
SECTION
2
TABLES
0
TABLE
2
LTYPE
0
LTYPE
72
65
70
64
2
CONTINUOUS
3
______
73
0
40
0
0
ENDTAB
0
TABLE
2
LAYER
0
LAYER
2
DEFAULT_255_2_778
70
0
62
255
6
CONTINUOUS
0
LAYER
2
DEFAULT_4_2_778
70
0
62
4
6
CONTINUOUS
0
ENDTAB
0
ENDSEC
0
SECTION
2
ENTITIES
0
ARC
8
0
10
50.4614543
20
27.2882912
40
3.4887422
50
359.9283361
51
6.5044932
0
ARC
8
0
10
50.8566817
20
27.3336011
40
3.0909262
50
6.4999252
51
14.2240912
0
ARC
8
0
10
51.1374403
20
27.4047768
40
2.8012862
50
14.2239481
51
23.6230212
0
ARC
8
0
10
51.2839202
20
27.4678776
40
2.6417956
50
23.6421915
51
35.9145448
0
ARC
8
0
10
51.1508876
20
27.3433597
40
2.8226693
50
36.3776017
51
66.1719299
0
ARC
8
0
10
50.863865
20
26.7202965
40
3.5085958
50
65.9948484
51
90.2328205
0
ARC
8
0
10
50.835436
20
26.7196558
40
3.5092362
50
89.768612
51
113.9513745
0
ARC
8
0
10
50.549949
20
27.3411509
40
2.8253743
50
113.7769562
51
143.3749625
0
ARC
8
0
10
50.4139096
20
27.4687057
40
2.6401841
50
143.8353025
51
156.0727567
0
ARC
8
0
10
50.5547167
20
27.407259
40
2.793812
50
156.0920743
51
165.4467911
0
ARC
8
0
10
50.8237088
20
27.3372564
40
3.0717635
50
165.4437241
51
172.9638656
0
ARC
8
0
10
51.1905328
20
27.2915105
40
3.4414288
50
172.9560876
51
179.2013448
0
ARC
8
0
10
51.4409171
20
27.2840319
40
3.691895
50
179.1394551
51
180.0016182
0
ARC
8
0
10
44.8345677
20
27.2880858
40
2.9144574
50
359.9182535
51
7.7975562
0
ARC
8
0
10
45.1245136
20
27.3279574
40
2.6217829
50
7.7939501
51
17.9540038
0
ARC
8
0
10
45.2422861
20
27.3638948
40
2.4986686
50
18.0025338
51
33.201056
0
ARC
8
0
10
44.9775296
20
27.1665525
40
2.8283368
50
33.609293
51
55.6330887
0
ARC
8
0
10
44.506026
20
26.5103989
40
3.6361601
50
55.3367671
51
66.8166355
0
ARC
8
0
10
44.1973965
20
25.7968991
40
4.4135452
50
66.7800209
51
76.942976
0
ARC
8
0
10
44.0358936
20
25.0982993
40
5.1305699
50
76.9485681
51
90.0845885
0
ARC
8
0
10
44.0195813
20
25.1139203
40
5.1149506
50
89.9021228
51
103.7226942
0
ARC
8
0
10
43.8412097
20
25.8511318
40
4.3564691
50
103.7437821
51
114.058173
0
ARC
8
0
10
43.5234347
20
26.5584807
40
3.5810212
50
114.029216
51
125.5189576
0
ARC
8
0
10
42.9924076
20
27.2546414
40
2.7060302
50
124.9310639
51
155.1609579
0
ARC
8
0
10
42.8446665
20
27.3521061
40
2.5311517
50
155.7582637
51
167.3915595
0
ARC
8
0
10
43.057111
20
27.3051349
40
2.7487264
50
167.4027191
51
176.2318956
0
ARC
8
0
10
43.3135058
20
27.2850312
40
3.0058899
50
176.1707019
51
180.0210353
0
LINE
8
DEFAULT_255_2_778
10
53.9501938
20
-2.4816925
11
53.9501938
21
27.2839276
0
LINE
8
DEFAULT_255_2_778
10
40.3076161
20
27.2839276
11
40.3162961
21
-2.4816925
0
ARC
8
0
10
37.3858707
20
27.2917939
40
2.9217616
50
359.9183215
51
7.7877898
0
ARC
8
0
10
37.6764709
20
27.3316805
40
2.6284368
50
7.7847142
51
17.8794479
0
ARC
8
0
10
37.7965725
20
27.3683046
40
2.5028923
50
17.9256364
51
32.9348554
0
ARC
8
0
10
37.5358235
20
27.1749971
40
2.8269086
50
33.3498581
51
55.6035358
0
ARC
8
0
10
37.0636368
20
26.5193151
40
3.6347402
50
55.3005811
51
66.7887648
0
ARC
8
0
10
36.7556895
20
25.8083085
40
4.4095663
50
66.7524094
51
76.9261898
0
ARC
8
0
10
36.5944884
20
25.1119097
40
5.1243787
50
76.9318581
51
90.0845527
0
ARC
8
0
10
36.5782038
20
25.1274728
40
5.1088175
50
89.9021769
51
103.7396683
0
ARC
8
0
10
36.400181
20
25.8623219
40
4.3527141
50
103.7608074
51
114.0854927
0
ARC
8
0
10
36.083136
20
26.5671614
40
3.5798542
50
114.0567195
51
125.5538115
0
ARC
8
0
10
35.5528118
20
27.2612125
40
2.7069727
50
124.963528
51
155.361563
0
ARC
8
0
10
35.4100682
20
27.3556458
40
2.5379932
50
155.9559182
51
167.4973356
0
ARC
8
0
10
35.624281
20
27.3086403
40
2.7573022
50
167.507374
51
176.2626975
0
ARC
8
0
10
35.8802335
20
27.288725
40
3.0140103
50
176.2020659
51
180.0208391
0
ARC
8
0
10
29.9444646
20
27.2917939
40
2.9217616
50
359.9183215
51
7.7877898
0
ARC
8
0
10
30.2350649
20
27.3316805
40
2.6284368
50
7.7847142
51
17.8794479
0
ARC
8
0
10
30.3551664
20
27.3683046
40
2.5028923
50
17.9256364
51
32.9348554
0
ARC
8
0
10
30.0944175
20
27.1749971
40
2.8269086
50
33.3498581
51
55.6035358
0
ARC
8
0
10
29.6222308
20
26.5193151
40
3.6347402
50
55.3005811
51
66.7887648
0
ARC
8
0
10
29.3142835
20
25.8083085
40
4.4095663
50
66.7524094
51
76.9261898
0
ARC
8
0
10
29.1530824
20
25.1119097
40
5.1243787
50
76.9318581
51
90.0845527
0
ARC
8
0
10
29.1367978
20
25.1274728
40
5.1088175
50
89.9021769
51
103.7396683
0
ARC
8
0
10
28.958775
20
25.8623219
40
4.3527141
50
103.7608074
51
114.0854927
0
ARC
8
0
10
28.64173
20
26.5671614
40
3.5798542
50
114.0567195
51
125.5538115
0
ARC
8
0
10
28.1114057
20
27.2612125
40
2.7069727
50
124.963528
51
155.361563
0
ARC
8
0
10
27.9686622
20
27.3556458
40
2.5379932
50
155.9559182
51
167.4973356
0
ARC
8
0
10
28.1828749
20
27.3086403
40
2.7573022
50
167.507374
51
176.2626975
0
ARC
8
0
10
28.4388274
20
27.288725
40
3.0140103
50
176.2020659
51
180.0208391
0
LINE
8
DEFAULT_255_2_778
10
25.4248172
20
27.2876287
11
25.4347427
21
-2.4779995
0
ARC
8
0
10
28.4498741
20
38.4430095
40
3.0250731
50
179.9192727
51
187.6534541
0
ARC
8
0
10
28.1461455
20
38.4021547
40
2.7186091
50
187.6526114
51
197.2709564
0
ARC
8
0
10
28.0015794
20
38.358623
40
2.5676375
50
197.3011151
51
211.0767105
0
ARC
8
0
10
28.2421876
20
38.5333485
40
2.8640167
50
211.585854
51
236.7566682
0
ARC
8
0
10
28.7337258
20
39.2356903
40
3.7209708
50
236.3551276
51
248.1992838
0
ARC
8
0
10
29.0242147
20
39.9547433
40
4.4964803
50
248.1652359
51
258.999904
0
ARC
8
0
10
29.1411736
20
40.5305725
40
5.0840491
50
258.9442811
51
270.0488363
0
ARC
8
0
10
29.1544463
20
40.4653902
40
5.0188728
50
269.8979489
51
284.2319938
0
ARC
8
0
10
29.3378699
20
39.7370322
40
4.2677754
50
284.2490675
51
295.1684154
0
ARC
8
0
10
29.6728408
20
39.0313342
40
3.4866198
50
295.1182993
51
308.0099778
0
ARC
8
0
10
30.1675216
20
38.4285075
40
2.7070903
50
307.6175548
51
337.026793
0
ARC
8
0
10
30.2337408
20
38.3789354
40
2.6268498
50
337.4585587
51
348.3037281
0
ARC
8
0
10
29.9925992
20
38.4284155
40
2.8730152
50
348.3123514
51
356.8691531
0
ARC
8
0
10
29.7308388
20
38.4464357
40
3.1353712
50
356.8015961
51
0.0152774
0
ARC
8
0
10
35.8912802
20
38.4430095
40
3.0250731
50
179.9192727
51
187.6534541
0
ARC
8
0
10
35.5875515
20
38.4021547
40
2.7186091
50
187.6526114
51
197.2709564
0
ARC
8
0
10
35.4429854
20
38.358623
40
2.5676375
50
197.3011151
51
211.0767105
0
ARC
8
0
10
35.6835936
20
38.5333485
40
2.8640167
50
211.585854
51
236.7566682
0
ARC
8
0
10
36.1751318
20
39.2356903
40
3.7209708
50
236.3551276
51
248.1992838
0
ARC
8
0
10
36.4656208
20
39.9547433
40
4.4964803
50
248.1652359
51
258.999904
0
ARC
8
0
10
36.5825796
20
40.5305725
40
5.0840491
50
258.9442811
51
270.0488363
0
ARC
8
0
10
36.5958523
20
40.4653902
40
5.0188728
50
269.8979489
51
284.2319938
0
ARC
8
0
10
36.779276
20
39.7370322
40
4.2677754
50
284.2490675
51
295.1684154
0
ARC
8
0
10
37.1142468
20
39.0313342
40
3.4866198
50
295.1182993
51
308.0099778
0
ARC
8
0
10
37.6089277
20
38.4285075
40
2.7070903
50
307.6175548
51
337.026793
0
ARC
8
0
10
37.6751468
20
38.3789354
40
2.6268498
50
337.4585587
51
348.3037281
0
ARC
8
0
10
37.4340052
20
38.4284155
40
2.8730152
50
348.3123514
51
356.8691531
0
ARC
8
0
10
37.1722448
20
38.4464357
40
3.1353712
50
356.8015961
51
0.0152774
0
ARC
8
0
10
43.3326862
20
38.4430095
40
3.0250731
50
179.9192727
51
187.6534541
0
ARC
8
0
10
43.0289576
20
38.4021547
40
2.7186091
50
187.6526114
51
197.2709564
0
ARC
8
0
10
42.8843915
20
38.358623
40
2.5676375
50
197.3011151
51
211.0767105
0
ARC
8
0
10
43.1249996
20
38.5333485
40
2.8640167
50
211.585854
51
236.7566682
0
ARC
8
0
10
43.6165379
20
39.2356903
40
3.7209708
50
236.3551276
51
248.1992838
0
ARC
8
0
10
43.9070268
20
39.9547433
40
4.4964803
50
248.1652359
51
258.999904
0
ARC
8
0
10
44.0239857
20
40.5305725
40
5.0840491
50
258.9442811
51
270.0488363
0
ARC
8
0
10
44.0372583
20
40.4653902
40
5.0188728
50
269.8979489
51
284.2319938
0
ARC
8
0
10
44.220682
20
39.7370322
40
4.2677754
50
284.2490675
51
295.1684154
0
ARC
8
0
10
44.5556529
20
39.0313342
40
3.4866198
50
295.1182993
51
308.0099778
0
ARC
8
0
10
45.0503337
20
38.4285075
40
2.7070903
50
307.6175548
51
337.026793
0
ARC
8
0
10
45.1165529
20
38.3789354
40
2.6268498
50
337.4585587
51
348.3037281
0
ARC
8
0
10
44.8754113
20
38.4284155
40
2.8730152
50
348.3123514
51
356.8691531
0
ARC
8
0
10
44.6136509
20
38.4464357
40
3.1353712
50
356.8015961
51
0.0152774
0
ARC
8
0
10
51.3737167
20
38.4429254
40
3.6246972
50
179.9312971
51
186.2935296
0
ARC
8
0
10
50.9633436
20
38.3974141
40
3.2118083
50
186.289051
51
193.7013703
0
ARC
8
0
10
50.6655899
20
38.3248506
40
2.90534
50
193.7019179
51
202.4710678
0
ARC
8
0
10
50.4903122
20
38.2528125
40
2.7158367
50
202.480048
51
213.8435586
0
ARC
8
0
10
50.4863428
20
38.2552189
40
2.7138834
50
213.9324265
51
231.0629351
0
ARC
8
0
10
50.7528142
20
38.6298252
40
3.172859
50
231.5713894
51
260.6974922
0
ARC
8
0
10
50.8486182
20
39.0236148
40
3.5770895
50
260.2027214
51
270.0158533
0
ARC
8
0
10
50.8666563
20
38.8739214
40
3.4274385
50
269.7150056
51
296.7502108
0
ARC
8
0
10
51.1332559
20
38.333525
40
2.8248846
50
296.8549887
51
322.0415311
0
ARC
8
0
10
51.23176
20
38.2395912
40
2.6894744
50
322.3285767
51
334.4794453
0
ARC
8
0
10
51.1017272
20
38.3007217
40
2.8331572
50
334.4967685
51
343.6695874
0
ARC
8
0
10
50.8410807
20
38.3767107
40
3.1046544
50
343.6763101
51
351.5835812
0
ARC
8
0
10
50.4691469
20
38.4323658
40
3.4807287
50
351.5734241
51
358.0067232
0
ARC
8
0
10
50.1646509
20
38.4467595
40
3.785543
50
357.9493005
51
0.0077528
0
LINE
8
DEFAULT_255_2_778
10
25.424804
20
68.833013
11
25.424804
21
38.4472717
0
LINE
8
DEFAULT_255_2_778
10
53.9501938
20
38.4472717
11
53.9501938
21
68.833013
0
LINE
8
DEFAULT_4_2_778
10
51.4697384
20
67.5927583
11
56.4306757
21
67.5927583
0
LINE
8
DEFAULT_4_2_778
10
53.9501938
20
70.073227
11
53.9501938
21
67.5927583
0
LINE
8
DEFAULT_4_2_778
10
22.9443353
20
67.5927583
11
27.9052727
21
67.5927583
0
LINE
8
DEFAULT_4_2_778
10
25.4248172
20
70.0732402
11
25.4248172
21
67.5927716
0
LINE
8
DEFAULT_4_2_778
10
22.9443485
20
-0.6201172
11
27.9052859
21
-0.6201172
0
LINE
8
DEFAULT_4_2_778
10
25.424804
20
-0.6201304
11
25.424804
21
-3.1005991
0
LINE
8
DEFAULT_4_2_778
10
51.4697251
20
-0.6201304
11
56.4306625
21
-0.6201304
0
LINE
8
DEFAULT_4_2_778
10
53.9501938
20
-0.6201304
11
53.9501938
21
-3.1005991
0
LINE
8
DEFAULT_4_2_778
10
37.8271474
20
-0.6201304
11
42.7880847
21
-0.6201304
0
LINE
8
DEFAULT_4_2_778
10
40.3076293
20
-0.6201304
11
40.3076293
21
-3.1005991
0
ENDSEC
0
EOF