0
SECTION
2
HEADER
0
ENDSEC
0
SECTION
2
TABLES
0
TABLE
2
LTYPE
0
LTYPE
72
65
70
64
2
CONTINUOUS
3
______
73
0
40
0
0
ENDTAB
0
TABLE
2
LAYER
0
LAYER
2
DEFAULT_255_2_778
70
0
62
255
6
CONTINUOUS
0
LAYER
2
DEFAULT_4_2_778
70
0
62
4
6
CONTINUOUS
0
ENDTAB
0
ENDSEC
0
SECTION
2
ENTITIES
0
ARC
8
0
10
56.3005831
20
58.6596791
40
1.4916923
50
78.9179973
51
90.160494
0
ARC
8
0
10
56.3344592
20
58.8344361
40
1.3136825
50
62.642436
51
78.9028923
0
ARC
8
0
10
56.2468168
20
58.7168475
40
1.4585892
50
28.3200559
51
61.7073657
0
ARC
8
0
10
55.7137404
20
58.4001415
40
2.0782681
50
13.2632547
51
29.0343982
0
ARC
8
0
10
55.2994924
20
58.2947175
40
2.505665
50
359.915314
51
13.4364201
0
ARC
8
0
10
55.3594906
20
58.2819723
40
2.4456807
50
341.5221727
51
0.2118233
0
ARC
8
0
10
55.8892796
20
58.1040306
40
1.8868082
50
324.64067
51
341.5482303
0
ARC
8
0
10
56.3097974
20
57.7911986
40
1.3628738
50
288.8839875
51
325.1355734
0
ARC
8
0
10
56.3159904
20
57.816504
40
1.3848841
50
274.9766306
51
288.3027029
0
ARC
8
0
10
56.2974293
20
57.9905486
40
1.5598865
50
269.9623674
51
275.1012562
0
ARC
8
0
10
56.3005831
20
54.9389761
40
1.4916923
50
78.9179973
51
90.160494
0
ARC
8
0
10
56.3344592
20
55.1137331
40
1.3136825
50
62.642436
51
78.9028923
0
ARC
8
0
10
56.2468168
20
54.9961445
40
1.4585892
50
28.3200559
51
61.7073657
0
ARC
8
0
10
55.7137404
20
54.6794385
40
2.0782681
50
13.2632547
51
29.0343982
0
ARC
8
0
10
55.2994924
20
54.5740145
40
2.505665
50
359.915314
51
13.4364201
0
ARC
8
0
10
55.3594906
20
54.5612693
40
2.4456807
50
341.5221727
51
0.2118233
0
ARC
8
0
10
55.8892796
20
54.3833276
40
1.8868082
50
324.64067
51
341.5482303
0
ARC
8
0
10
56.3097974
20
54.0704956
40
1.3628738
50
288.8839875
51
325.1355734
0
ARC
8
0
10
56.3159904
20
54.095801
40
1.3848841
50
274.9766306
51
288.3027029
0
ARC
8
0
10
56.2974293
20
54.2698455
40
1.5598865
50
269.9623674
51
275.1012562
0
ARC
8
0
10
56.3005831
20
51.218273
40
1.4916923
50
78.9179973
51
90.160494
0
ARC
8
0
10
56.3344592
20
51.3930301
40
1.3136825
50
62.642436
51
78.9028923
0
ARC
8
0
10
56.2468168
20
51.2754415
40
1.4585892
50
28.3200559
51
61.7073657
0
ARC
8
0
10
55.7137404
20
50.9587355
40
2.0782681
50
13.2632547
51
29.0343982
0
ARC
8
0
10
55.2994924
20
50.8533115
40
2.505665
50
359.915314
51
13.4364201
0
ARC
8
0
10
55.3594906
20
50.8405663
40
2.4456807
50
341.5221727
51
0.2118233
0
ARC
8
0
10
55.8892796
20
50.6626246
40
1.8868082
50
324.64067
51
341.5482303
0
ARC
8
0
10
56.3097974
20
50.3497926
40
1.3628738
50
288.8839875
51
325.1355734
0
ARC
8
0
10
56.3159904
20
50.375098
40
1.3848841
50
274.9766306
51
288.3027029
0
ARC
8
0
10
56.2974293
20
50.5491425
40
1.5598865
50
269.9623674
51
275.1012562
0
ARC
8
0
10
26.5349588
20
58.6596868
40
1.4916846
50
78.9179679
51
90.1604894
0
ARC
8
0
10
26.5688338
20
58.8344401
40
1.3136786
50
62.6423847
51
78.9028451
0
ARC
8
0
10
26.4811901
20
58.7168508
40
1.4585866
50
28.3199637
51
61.7072834
0
ARC
8
0
10
25.9481035
20
58.4001403
40
2.0782766
50
13.2632342
51
29.0343067
0
ARC
8
0
10
25.5338638
20
58.2947192
40
2.5056648
50
359.9152755
51
13.4363817
0
ARC
8
0
10
25.5938548
20
58.2819717
40
2.4456879
50
341.522243
51
0.2118379
0
ARC
8
0
10
26.1236378
20
58.104035
40
1.8868224
50
324.6408118
51
341.5482337
0
ARC
8
0
10
26.5441724
20
57.7911934
40
1.3628687
50
288.8840371
51
325.1356908
0
ARC
8
0
10
26.5503662
20
57.8164946
40
1.3848747
50
274.976648
51
288.3027724
0
ARC
8
0
10
26.5318049
20
57.9905415
40
1.5598794
50
269.9623725
51
275.1012692
0
ARC
8
0
10
26.5349588
20
54.9389838
40
1.4916846
50
78.9179679
51
90.1604894
0
ARC
8
0
10
26.5688338
20
55.1137371
40
1.3136786
50
62.6423847
51
78.9028451
0
ARC
8
0
10
26.4811901
20
54.9961478
40
1.4585866
50
28.3199637
51
61.7072834
0
ARC
8
0
10
25.9481035
20
54.6794373
40
2.0782766
50
13.2632342
51
29.0343067
0
ARC
8
0
10
25.5338638
20
54.5740162
40
2.5056648
50
359.9152755
51
13.4363817
0
ARC
8
0
10
25.5938548
20
54.5612686
40
2.4456879
50
341.522243
51
0.2118379
0
ARC
8
0
10
26.1236378
20
54.383332
40
1.8868224
50
324.6408118
51
341.5482337
0
ARC
8
0
10
26.5441724
20
54.0704904
40
1.3628687
50
288.8840371
51
325.1356908
0
ARC
8
0
10
26.5503662
20
54.0957916
40
1.3848747
50
274.976648
51
288.3027724
0
ARC
8
0
10
26.5318049
20
54.2698385
40
1.5598794
50
269.9623725
51
275.1012692
0
ARC
8
0
10
26.5349588
20
51.2182808
40
1.4916846
50
78.9179679
51
90.1604894
0
ARC
8
0
10
26.5688338
20
51.3930341
40
1.3136786
50
62.6423847
51
78.9028451
0
ARC
8
0
10
26.4811901
20
51.2754448
40
1.4585866
50
28.3199637
51
61.7072834
0
ARC
8
0
10
25.9481035
20
50.9587343
40
2.0782766
50
13.2632342
51
29.0343067
0
ARC
8
0
10
25.5338638
20
50.8533131
40
2.5056648
50
359.9152755
51
13.4363817
0
ARC
8
0
10
25.5938548
20
50.8405656
40
2.4456879
50
341.522243
51
0.2118379
0
ARC
8
0
10
26.1236378
20
50.6626289
40
1.8868224
50
324.6408118
51
341.5482337
0
ARC
8
0
10
26.5441724
20
50.3497874
40
1.3628687
50
288.8840371
51
325.1356908
0
ARC
8
0
10
26.5503662
20
50.3750885
40
1.3848747
50
274.976648
51
288.3027724
0
ARC
8
0
10
26.5318049
20
50.5491354
40
1.5598794
50
269.9623725
51
275.1012692
0
ARC
8
0
10
41.4177711
20
58.6596791
40
1.4916923
50
78.9179973
51
90.160494
0
ARC
8
0
10
41.4516471
20
58.8344361
40
1.3136825
50
62.642436
51
78.9028923
0
ARC
8
0
10
41.3640047
20
58.7168475
40
1.4585892
50
28.3200559
51
61.7073657
0
ARC
8
0
10
40.8309284
20
58.4001415
40
2.0782681
50
13.2632547
51
29.0343982
0
ARC
8
0
10
40.4166803
20
58.2947175
40
2.505665
50
359.915314
51
13.4364201
0
ARC
8
0
10
40.4766785
20
58.2819723
40
2.4456807
50
341.5221727
51
0.2118233
0
ARC
8
0
10
41.0064675
20
58.1040306
40
1.8868082
50
324.64067
51
341.5482303
0
ARC
8
0
10
41.4269853
20
57.7911986
40
1.3628738
50
288.8839875
51
325.1355734
0
ARC
8
0
10
41.4331784
20
57.816504
40
1.3848841
50
274.9766306
51
288.3027029
0
ARC
8
0
10
41.4146172
20
57.9905486
40
1.5598865
50
269.9623674
51
275.1012562
0
ARC
8
0
10
41.4177711
20
54.9389761
40
1.4916923
50
78.9179973
51
90.160494
0
ARC
8
0
10
41.4516471
20
55.1137331
40
1.3136825
50
62.642436
51
78.9028923
0
ARC
8
0
10
41.3640047
20
54.9961445
40
1.4585892
50
28.3200559
51
61.7073657
0
ARC
8
0
10
40.8309284
20
54.6794385
40
2.0782681
50
13.2632547
51
29.0343982
0
ARC
8
0
10
40.4166803
20
54.5740145
40
2.505665
50
359.915314
51
13.4364201
0
ARC
8
0
10
40.4766785
20
54.5612693
40
2.4456807
50
341.5221727
51
0.2118233
0
ARC
8
0
10
41.0064675
20
54.3833276
40
1.8868082
50
324.64067
51
341.5482303
0
ARC
8
0
10
41.4269853
20
54.0704956
40
1.3628738
50
288.8839875
51
325.1355734
0
ARC
8
0
10
41.4331784
20
54.095801
40
1.3848841
50
274.9766306
51
288.3027029
0
ARC
8
0
10
41.4146172
20
54.2698455
40
1.5598865
50
269.9623674
51
275.1012562
0
ARC
8
0
10
41.417972
20
51.2269724
40
1.4829935
50
79.0722178
51
90.1691998
0
ARC
8
0
10
41.4545531
20
51.4177971
40
1.2886943
50
63.5715461
51
79.0607848
0
ARC
8
0
10
41.3822147
20
51.3253745
40
1.4038534
50
27.7683993
51
62.6065544
0
ARC
8
0
10
40.8476387
20
51.0112521
40
2.023422
50
13.7910176
51
28.5864621
0
ARC
8
0
10
40.3726211
20
50.8899207
40
2.513673
50
359.8642953
51
13.8958297
0
ARC
8
0
10
40.2460312
20
50.8839535
40
2.6402558
50
359.2546517
51
0.0002951
0
ARC
8
0
10
40.353404
20
50.8747158
40
2.532784
50
341.3660358
51
359.4320088
0
ARC
8
0
10
40.8813806
20
50.6965358
40
1.9755522
50
326.274614
51
341.370097
0
ARC
8
0
10
41.3872804
20
50.3325944
40
1.352902
50
289.0865619
51
327.1983534
0
ARC
8
0
10
41.4266457
20
50.285339
40
1.2955547
50
273.7043922
51
288.124675
0
ARC
8
0
10
41.4140695
20
50.423682
40
1.4344258
50
269.9809509
51
273.8486563
0
LINE
8
DEFAULT_255_2_778
10
41.4135926
20
42.7880847
11
52.5757017
21
42.7880847
0
LINE
8
DEFAULT_255_2_778
10
52.5757017
20
42.7880847
11
52.1961908
21
60.1513655
0
LINE
8
DEFAULT_255_2_778
10
52.1961908
20
60.1513655
11
56.2964047
21
60.1513655
0
LINE
8
DEFAULT_255_2_778
10
56.2964047
20
48.9892564
11
56.2964047
21
39.0673817
0
LINE
8
DEFAULT_255_2_778
10
56.2964047
20
39.0673817
11
21.5723261
21
39.0673817
0
LINE
8
DEFAULT_255_2_778
10
21.5723261
20
39.0673817
11
21.5698432
21
60.1513655
0
LINE
8
DEFAULT_255_2_778
10
21.5698432
20
60.1513655
11
26.5307805
21
60.1513655
0
LINE
8
DEFAULT_255_2_778
10
26.5307805
20
48.9892564
11
26.5307805
21
42.7880847
0
LINE
8
DEFAULT_255_2_778
10
26.5307805
20
42.7880847
11
37.6928896
21
42.7880847
0
LINE
8
DEFAULT_255_2_778
10
37.6928896
20
42.7880847
11
37.6928896
21
60.1513655
0
LINE
8
DEFAULT_255_2_778
10
37.6928896
20
60.1513655
11
41.4135926
21
60.1513655
0
LINE
8
DEFAULT_255_2_778
10
41.4135926
20
48.9892564
11
41.4135926
21
42.7880847
0
LINE
8
DEFAULT_255_2_778
10
25.2905412
20
71.3134746
11
25.2905412
21
60.1513655
0
LINE
8
DEFAULT_255_2_778
10
40.1733533
20
71.3134746
11
40.1733533
21
60.1513655
0
LINE
8
DEFAULT_255_2_778
10
55.0561653
20
71.3134746
11
55.0561653
21
60.1513655
0
ARC
8
0
10
56.300583
20
14.5139005
40
1.4914458
50
269.8392092
51
281.0795273
0
ARC
8
0
10
56.3345522
20
14.3386683
40
1.3129516
50
281.0943007
51
297.356
0
ARC
8
0
10
56.2472017
20
14.4557342
40
1.4572592
50
298.2913313
51
331.6892221
0
ARC
8
0
10
55.7138092
20
14.7724827
40
2.0772324
50
330.9748594
51
346.7456701
0
ARC
8
0
10
55.2980058
20
14.8782057
40
2.5062104
50
346.5725213
51
0.0855459
0
ARC
8
0
10
56.8701154
20
14.8821637
40
0.9340981
50
359.9867432
51
0.0397703
0
ARC
8
0
10
55.3563759
20
14.8910034
40
2.4478511
50
359.8082681
51
18.4818381
0
ARC
8
0
10
55.885956
20
15.0688743
40
1.8891989
50
18.4570307
51
35.3016148
0
ARC
8
0
10
56.3086475
20
15.3829199
40
1.3628036
50
34.7956626
51
71.0680475
0
ARC
8
0
10
56.3159128
20
15.360146
40
1.382062
50
71.659276
51
85.0113752
0
ARC
8
0
10
56.2974223
20
15.1871052
40
1.5560588
50
84.8871726
51
90.0377328
0
ARC
8
0
10
56.3005683
20
18.2312195
40
1.4880617
50
269.8394111
51
281.0955525
0
ARC
8
0
10
56.3342933
20
18.0573737
40
1.3109753
50
281.1113431
51
297.3874954
0
ARC
8
0
10
56.2456997
20
18.176395
40
1.4576061
50
298.3275166
51
331.7071296
0
ARC
8
0
10
55.7104705
20
18.494092
40
2.0796397
50
330.9892314
51
346.7505298
0
ARC
8
0
10
55.2946894
20
18.599802
40
2.5085927
50
346.5768872
51
0.0848077
0
ARC
8
0
10
55.3547425
20
18.6125649
40
2.4485534
50
359.7882364
51
18.4474685
0
ARC
8
0
10
55.8847785
20
18.7901431
40
1.8895618
50
18.4252956
51
35.2120973
0
ARC
8
0
10
56.3085812
20
19.104191
40
1.3622783
50
34.6982294
51
71.0309042
0
ARC
8
0
10
56.3160047
20
19.0816148
40
1.3812902
50
71.6265187
51
85.0037323
0
ARC
8
0
10
56.2974276
20
18.9080122
40
1.5558547
50
84.8789926
51
90.0379331
0
ARC
8
0
10
56.3005683
20
21.9519225
40
1.4880617
50
269.8394111
51
281.0955525
0
ARC
8
0
10
56.3342933
20
21.7780768
40
1.3109753
50
281.1113431
51
297.3874954
0
ARC
8
0
10
56.2456997
20
21.897098
40
1.4576061
50
298.3275166
51
331.7071296
0
ARC
8
0
10
55.7104705
20
22.2147951
40
2.0796397
50
330.9892314
51
346.7505298
0
ARC
8
0
10
55.2946894
20
22.320505
40
2.5085927
50
346.5768872
51
0.0848077
0
ARC
8
0
10
55.3547425
20
22.3332679
40
2.4485534
50
359.7882364
51
18.4474685
0
ARC
8
0
10
55.8847785
20
22.5108461
40
1.8895618
50
18.4252956
51
35.2120973
0
ARC
8
0
10
56.3085812
20
22.824894
40
1.3622783
50
34.6982294
51
71.0309042
0
ARC
8
0
10
56.3160047
20
22.8023178
40
1.3812902
50
71.6265187
51
85.0037323
0
ARC
8
0
10
56.2974276
20
22.6287152
40
1.5558547
50
84.8789926
51
90.0379331
0
ARC
8
0
10
26.5349569
20
14.5138962
40
1.4914415
50
269.8392841
51
281.0796237
0
ARC
8
0
10
26.5689264
20
14.3386683
40
1.3129519
50
281.0943608
51
297.3560586
0
ARC
8
0
10
26.4815723
20
14.455738
40
1.4572645
50
298.2914366
51
331.68927
0
ARC
8
0
10
25.9481787
20
14.7724879
40
2.0772393
50
330.974877
51
346.7456761
0
ARC
8
0
10
25.5323836
20
14.87821
40
2.5062092
50
346.5725008
51
0.0855609
0
ARC
8
0
10
27.1150762
20
14.8821675
40
0.9235139
50
359.9866692
51
0.0399924
0
ARC
8
0
10
25.5907608
20
14.8910089
40
2.4478429
50
359.8081392
51
18.4817676
0
ARC
8
0
10
26.1203347
20
15.0688759
40
1.8891978
50
18.4569922
51
35.3015803
0
ARC
8
0
10
26.5430275
20
15.3829216
40
1.3628013
50
34.795645
51
71.0681289
0
ARC
8
0
10
26.5502887
20
15.3601363
40
1.3820717
50
71.6593464
51
85.0113934
0
ARC
8
0
10
26.5317981
20
15.1870901
40
1.5560739
50
84.8872023
51
90.0377325
0
ARC
8
0
10
26.5349443
20
18.2312286
40
1.4880709
50
269.8394064
51
281.095523
0
ARC
8
0
10
26.5686682
20
18.0573866
40
1.3109883
50
281.1113209
51
297.3873699
0
ARC
8
0
10
26.4800797
20
18.1763986
40
1.4576085
50
298.3273951
51
331.7070198
0
ARC
8
0
10
25.9448604
20
18.4940923
40
2.0796319
50
330.9891036
51
346.7504709
0
ARC
8
0
10
25.5290853
20
18.5998011
40
2.5085786
50
346.5768295
51
0.0848267
0
ARC
8
0
10
25.5891315
20
18.6125642
40
2.4485464
50
359.7882511
51
18.4475391
0
ARC
8
0
10
26.1191586
20
18.7901386
40
1.8895644
50
18.4254124
51
35.2122033
0
ARC
8
0
10
26.5429596
20
19.1041858
40
1.3622829
50
34.698359
51
71.0310012
0
ARC
8
0
10
26.5503811
20
19.0816061
40
1.3812988
50
71.6265836
51
85.0037651
0
ARC
8
0
10
26.5318036
20
18.9080036
40
1.5558633
50
84.8790056
51
90.0379383
0
ARC
8
0
10
26.5349569
20
21.9553022
40
1.4914415
50
269.8392841
51
281.0796237
0
ARC
8
0
10
26.5689264
20
21.7800744
40
1.3129519
50
281.0943608
51
297.3560586
0
ARC
8
0
10
26.4815723
20
21.8971441
40
1.4572645
50
298.2914366
51
331.68927
0
ARC
8
0
10
25.9481787
20
22.2138939
40
2.0772393
50
330.974877
51
346.7456761
0
ARC
8
0
10
25.5323836
20
22.3196161
40
2.5062092
50
346.5725008
51
0.0855609
0
ARC
8
0
10
27.1150762
20
22.3235735
40
0.9235139
50
359.9866692
51
0.0399924
0
ARC
8
0
10
25.5907608
20
22.332415
40
2.4478429
50
359.8081392
51
18.4817676
0
ARC
8
0
10
26.1203347
20
22.5102819
40
1.8891978
50
18.4569922
51
35.3015803
0
ARC
8
0
10
26.5430275
20
22.8243276
40
1.3628013
50
34.795645
51
71.0681289
0
ARC
8
0
10
26.5502887
20
22.8015423
40
1.3820717
50
71.6593464
51
85.0113934
0
ARC
8
0
10
26.5317981
20
22.6284962
40
1.5560739
50
84.8872023
51
90.0377325
0
ARC
8
0
10
41.4177562
20
14.5105164
40
1.4880617
50
269.8394111
51
281.0955525
0
ARC
8
0
10
41.4514812
20
14.3366707
40
1.3109753
50
281.1113431
51
297.3874954
0
ARC
8
0
10
41.3628876
20
14.455692
40
1.4576061
50
298.3275166
51
331.7071296
0
ARC
8
0
10
40.8276584
20
14.773389
40
2.0796397
50
330.9892314
51
346.7505298
0
ARC
8
0
10
40.4118773
20
14.8790989
40
2.5085927
50
346.5768872
51
0.0848077
0
ARC
8
0
10
40.4719304
20
14.8918619
40
2.4485534
50
359.7882364
51
18.4474685
0
ARC
8
0
10
41.0019664
20
15.0694401
40
1.8895618
50
18.4252956
51
35.2120973
0
ARC
8
0
10
41.4257692
20
15.3834879
40
1.3622783
50
34.6982294
51
71.0309042
0
ARC
8
0
10
41.4331926
20
15.3609117
40
1.3812902
50
71.6265187
51
85.0037323
0
ARC
8
0
10
41.4146155
20
15.1873092
40
1.5558547
50
84.8789926
51
90.0379331
0
ARC
8
0
10
41.4177562
20
18.2312195
40
1.4880617
50
269.8394111
51
281.0955525
0
ARC
8
0
10
41.4514812
20
18.0573737
40
1.3109753
50
281.1113431
51
297.3874954
0
ARC
8
0
10
41.3628876
20
18.176395
40
1.4576061
50
298.3275166
51
331.7071296
0
ARC
8
0
10
40.8276584
20
18.494092
40
2.0796397
50
330.9892314
51
346.7505298
0
ARC
8
0
10
40.4118773
20
18.599802
40
2.5085927
50
346.5768872
51
0.0848077
0
ARC
8
0
10
40.4719304
20
18.6125649
40
2.4485534
50
359.7882364
51
18.4474685
0
ARC
8
0
10
41.0019664
20
18.7901431
40
1.8895618
50
18.4252956
51
35.2120973
0
ARC
8
0
10
41.4257692
20
19.104191
40
1.3622783
50
34.6982294
51
71.0309042
0
ARC
8
0
10
41.4331926
20
19.0816148
40
1.3812902
50
71.6265187
51
85.0037323
0
ARC
8
0
10
41.4146155
20
18.9080122
40
1.5558547
50
84.8789926
51
90.0379331
0
ARC
8
0
10
41.417949
20
21.9434865
40
1.4796263
50
269.8310304
51
280.9436296
0
ARC
8
0
10
41.4543095
20
21.7539814
40
1.2866648
50
280.9559617
51
296.4597392
0
ARC
8
0
10
41.3807219
20
21.8484181
40
1.4041989
50
297.4309466
51
332.2591844
0
ARC
8
0
10
40.8441307
20
22.1635056
40
2.0259892
50
331.4360977
51
346.2180468
0
ARC
8
0
10
40.3690631
20
22.2847976
40
2.5162784
50
346.1127176
51
0.1348795
0
ARC
8
0
10
40.2435703
20
22.2907351
40
2.6417642
50
359.9996981
51
0.7262156
0
ARC
8
0
10
40.3518306
20
22.3000002
40
2.5334075
50
0.5477236
51
18.607972
0
ARC
8
0
10
40.8812388
20
22.4783768
40
1.9747562
50
18.6044247
51
33.7029023
0
ARC
8
0
10
41.387513
20
22.8422663
40
1.351832
50
32.7787081
51
70.910394
0
ARC
8
0
10
41.4266754
20
22.8889513
40
1.2950888
50
71.8722596
51
86.2960034
0
ARC
8
0
10
41.4140634
20
22.7502385
40
1.4343313
50
86.1512164
51
90.0190907
0
LINE
8
DEFAULT_255_2_778
10
41.4135854
20
24.1845696
11
41.4135854
21
30.3857413
0
LINE
8
DEFAULT_255_2_778
10
41.4135854
20
30.3857413
11
52.5756945
21
30.3857413
0
LINE
8
DEFAULT_255_2_778
10
52.5756945
20
30.3857413
11
52.5756945
21
13.0224606
0
LINE
8
DEFAULT_255_2_778
10
52.5756945
20
13.0224606
11
56.2963975
21
13.0224606
0
LINE
8
DEFAULT_255_2_778
10
56.2963975
20
24.1845696
11
56.2963975
21
34.1064444
0
LINE
8
DEFAULT_255_2_778
10
56.2963975
20
34.1064444
11
21.5723189
21
34.1064444
0
LINE
8
DEFAULT_255_2_778
10
21.5723189
20
34.1064444
11
21.5723189
21
13.0224606
0
LINE
8
DEFAULT_255_2_778
10
21.5723189
20
13.0224606
11
26.5307734
21
13.0224606
0
LINE
8
DEFAULT_255_2_778
10
26.5307734
20
24.1845696
11
26.5307734
21
30.3857413
0
LINE
8
DEFAULT_255_2_778
10
26.5307734
20
30.3857413
11
37.6928824
21
30.3857413
0
LINE
8
DEFAULT_255_2_778
10
37.6928824
20
30.3857413
11
37.6928824
21
13.0224606
0
LINE
8
DEFAULT_255_2_778
10
37.6928824
20
13.0224606
11
41.4135854
21
13.0224606
0
LINE
8
DEFAULT_255_2_778
10
41.4135854
20
24.1845696
11
41.4135854
21
24.1845696
0
LINE
8
DEFAULT_255_2_778
10
25.2905412
20
0.6201039
11
25.2905412
21
13.0224473
0
LINE
8
DEFAULT_255_2_778
10
40.1733533
20
0.6201039
11
40.1733533
21
13.0224473
0
LINE
8
DEFAULT_255_2_778
10
55.0561653
20
0.6201039
11
55.0561653
21
13.0224473
0
LINE
8
DEFAULT_4_2_778
10
52.5756967
20
71.3134613
11
57.536634
21
71.3134613
0
LINE
8
DEFAULT_4_2_778
10
55.0561653
20
73.79393
11
55.0561653
21
71.3134613
0
LINE
8
DEFAULT_4_2_778
10
22.8100725
20
71.3134613
11
27.7710099
21
71.3134613
0
LINE
8
DEFAULT_4_2_778
10
25.2905412
20
73.79393
11
25.2905412
21
71.3134613
0
LINE
8
DEFAULT_4_2_778
10
37.6928846
20
71.3134613
11
42.6538219
21
71.3134613
0
LINE
8
DEFAULT_4_2_778
10
40.1733533
20
73.7939433
11
40.1733533
21
71.3134746
0
LINE
8
DEFAULT_4_2_778
10
22.8100725
20
0.6201172
11
27.7710099
21
0.6201172
0
LINE
8
DEFAULT_4_2_778
10
25.2905412
20
0.6201039
11
25.2905412
21
-1.8603647
0
LINE
8
DEFAULT_4_2_778
10
52.5756967
20
0.6201039
11
57.536634
21
0.6201039
0
LINE
8
DEFAULT_4_2_778
10
55.0561653
20
0.6201039
11
55.0561653
21
-1.8603647
0
LINE
8
DEFAULT_4_2_778
10
37.6928846
20
0.6201039
11
42.6538219
21
0.6201039
0
LINE
8
DEFAULT_4_2_778
10
40.1733533
20
0.6201039
11
40.1733533
21
-1.8603647
0
ENDSEC
0
EOF