0
SECTION
2
HEADER
0
ENDSEC
0
SECTION
2
TABLES
0
TABLE
2
LTYPE
0
LTYPE
72
65
70
64
2
CONTINUOUS
3
______
73
0
40
0
0
ENDTAB
0
TABLE
2
LAYER
0
LAYER
2
DEFAULT_255_2_778
70
0
62
255
6
CONTINUOUS
0
LAYER
2
DEFAULT_4_2_778
70
0
62
4
6
CONTINUOUS
0
ENDTAB
0
ENDSEC
0
SECTION
2
ENTITIES
0
ARC
8
0
10
35.9710947
20
61.0119292
40
4.099145
50
85.0979901
51
90.060048
0
ARC
8
0
10
36.0197523
20
61.5722589
40
3.5367071
50
79.4184511
51
85.1076839
0
ARC
8
0
10
36.1099474
20
62.0521992
40
3.0483655
50
72.9085811
51
79.4283666
0
ARC
8
0
10
36.2312823
20
62.4456244
40
2.6366551
50
65.5173499
51
72.9161838
0
ARC
8
0
10
36.3741905
20
62.7580147
40
2.2931292
50
56.7117954
51
65.5323104
0
ARC
8
0
10
36.5277603
20
62.9912351
40
2.0138886
50
46.2663108
51
56.7222929
0
ARC
8
0
10
36.6770176
20
63.1466435
40
1.7984139
50
33.2554871
51
46.2794517
0
ARC
8
0
10
36.8061803
20
63.2307873
40
1.6442615
50
15.212388
51
33.2717082
0
ARC
8
0
10
36.8704813
20
63.2502872
40
1.577098
50
0.01574
51
15.141756
0
ARC
8
0
10
36.8558601
20
63.2528619
40
1.5917206
50
334.5005652
51
359.9229175
0
ARC
8
0
10
36.7435957
20
63.305407
40
1.7156703
50
319.6862324
51
334.5307341
0
ARC
8
0
10
36.6016679
20
63.4253471
40
1.90149
50
308.0594757
51
319.6973094
0
ARC
8
0
10
36.4479889
20
63.6207757
40
2.1501049
50
298.5573663
51
308.0734592
0
ARC
8
0
10
36.2989883
20
63.8933533
40
2.4607485
50
290.5724294
51
298.5706491
0
ARC
8
0
10
36.1657316
20
64.2471461
40
2.8388047
50
283.6115016
51
290.5812912
0
ARC
8
0
10
36.0605858
20
64.6776875
40
3.2819986
50
277.7643511
51
283.6266933
0
ARC
8
0
10
35.9927188
20
65.1694796
40
3.7784509
50
272.7790238
51
277.7765458
0
ARC
8
0
10
35.9682779
20
65.6166168
40
4.2262482
50
269.9799465
51
272.8160768
0
ARC
8
0
10
35.9710947
20
57.2912262
40
4.099145
50
85.0979901
51
90.060048
0
ARC
8
0
10
36.0197523
20
57.8515559
40
3.5367071
50
79.4184511
51
85.1076839
0
ARC
8
0
10
36.1099474
20
58.3314963
40
3.0483654
50
72.9085811
51
79.4283666
0
ARC
8
0
10
36.2312824
20
58.7249215
40
2.636655
50
65.5173499
51
72.9161838
0
ARC
8
0
10
36.3741905
20
59.0373119
40
2.2931291
50
56.7117955
51
65.5323104
0
ARC
8
0
10
36.5277604
20
59.2705324
40
2.0138884
50
46.2663109
51
56.7222929
0
ARC
8
0
10
36.6770178
20
59.4259409
40
1.7984136
50
33.2554872
51
46.2794519
0
ARC
8
0
10
36.8061843
20
59.5100861
40
1.6442574
50
15.2123777
51
33.2717397
0
ARC
8
0
10
36.8704817
20
59.5295847
40
1.5770976
50
0.0157401
51
15.1417561
0
ARC
8
0
10
36.85586
20
59.5321595
40
1.5917207
50
334.5005668
51
359.922912
0
ARC
8
0
10
36.7436021
20
59.5847011
40
1.715663
50
319.6861869
51
334.5307489
0
ARC
8
0
10
36.6016786
20
59.7046348
40
1.9014754
50
308.0594094
51
319.6973309
0
ARC
8
0
10
36.4480033
20
59.9000536
40
2.1500803
50
298.5572849
51
308.0734857
0
ARC
8
0
10
36.2989883
20
60.1726511
40
2.4607484
50
290.5724294
51
298.570649
0
ARC
8
0
10
36.1657316
20
60.5264439
40
2.8388047
50
283.6115015
51
290.5812912
0
ARC
8
0
10
36.0605858
20
60.9569854
40
3.2819986
50
277.7643511
51
283.6266933
0
ARC
8
0
10
35.9927188
20
61.4487775
40
3.7784509
50
272.7790238
51
277.7765458
0
ARC
8
0
10
35.9682779
20
61.8959148
40
4.2262482
50
269.9799465
51
272.8160768
0
ARC
8
0
10
35.9710947
20
53.5705242
40
4.099145
50
85.0979901
51
90.060048
0
ARC
8
0
10
36.0197523
20
54.1308537
40
3.5367072
50
79.418451
51
85.1076839
0
ARC
8
0
10
36.1099315
20
54.6107368
40
3.0484247
50
72.9086121
51
79.428271
0
ARC
8
0
10
36.2312969
20
55.0042615
40
2.6366104
50
65.5172556
51
72.9162159
0
ARC
8
0
10
36.3741881
20
55.3166097
40
2.2931299
50
56.7117389
51
65.5322534
0
ARC
8
0
10
36.527758
20
55.5498293
40
2.0138901
50
46.2662638
51
56.7222423
0
ARC
8
0
10
36.6770152
20
55.705237
40
1.798416
50
33.2554549
51
46.2794121
0
ARC
8
0
10
36.8061778
20
55.7893804
40
1.644264
50
15.2123754
51
33.2716839
0
ARC
8
0
10
36.8704782
20
55.8088802
40
1.5771012
50
0.0157399
51
15.1417415
0
ARC
8
0
10
36.8558567
20
55.8114548
40
1.591724
50
334.5005935
51
359.9229182
0
ARC
8
0
10
36.7435994
20
55.8639962
40
1.7156657
50
319.68622
51
334.5307724
0
ARC
8
0
10
36.6016761
20
55.9839292
40
1.9014776
50
308.059455
51
319.6973711
0
ARC
8
0
10
36.4480009
20
56.1793471
40
2.1500817
50
298.5573395
51
308.0735384
0
ARC
8
0
10
36.2990025
20
56.4519104
40
2.4607117
50
290.5723986
51
298.5707397
0
ARC
8
0
10
36.1657315
20
56.8057374
40
2.838805
50
283.6115016
51
290.5812913
0
ARC
8
0
10
36.0605858
20
57.2362786
40
3.2819987
50
277.7643512
51
283.6266934
0
ARC
8
0
10
35.9927188
20
57.7280705
40
3.7784509
50
272.7790238
51
277.7765459
0
ARC
8
0
10
35.9682779
20
58.1752078
40
4.2262482
50
269.9799465
51
272.8160768
0
LINE
8
DEFAULT_255_2_778
10
35.9667987
20
71.3122442
11
35.9667987
21
65.111072
0
LINE
8
DEFAULT_255_2_778
10
35.9667987
20
53.9489599
11
35.9667987
21
49.1951421
0
LINE
8
DEFAULT_255_2_778
10
49.6093868
20
20.4638666
11
50.8496212
21
20.4638666
0
LINE
8
DEFAULT_255_2_778
10
50.8496212
20
20.4638666
11
54.5703242
21
16.7431636
0
LINE
8
DEFAULT_255_2_778
10
54.5703242
20
16.7431636
11
60.7714959
21
16.7431636
0
ARC
8
0
10
48.3734381
20
61.0119292
40
4.099145
50
85.0979901
51
90.060048
0
ARC
8
0
10
48.4220957
20
61.5722589
40
3.5367071
50
79.4184511
51
85.1076839
0
ARC
8
0
10
48.5122908
20
62.0521992
40
3.0483655
50
72.9085811
51
79.4283666
0
ARC
8
0
10
48.6336257
20
62.4456244
40
2.6366551
50
65.5173499
51
72.9161838
0
ARC
8
0
10
48.7765339
20
62.7580147
40
2.2931292
50
56.7117954
51
65.5323104
0
ARC
8
0
10
48.9301037
20
62.9912351
40
2.0138886
50
46.2663108
51
56.7222929
0
ARC
8
0
10
49.079361
20
63.1466435
40
1.7984139
50
33.2554871
51
46.2794517
0
ARC
8
0
10
49.2085237
20
63.2307873
40
1.6442615
50
15.212388
51
33.2717082
0
ARC
8
0
10
49.2728247
20
63.2502872
40
1.577098
50
0.01574
51
15.141756
0
ARC
8
0
10
49.2582035
20
63.2528619
40
1.5917206
50
334.5005652
51
359.9229175
0
ARC
8
0
10
49.1459391
20
63.305407
40
1.7156703
50
319.6862324
51
334.5307341
0
ARC
8
0
10
49.0040113
20
63.4253471
40
1.90149
50
308.0594757
51
319.6973094
0
ARC
8
0
10
48.8503323
20
63.6207757
40
2.1501049
50
298.5573663
51
308.0734592
0
ARC
8
0
10
48.7013317
20
63.8933533
40
2.4607485
50
290.5724294
51
298.5706491
0
ARC
8
0
10
48.568075
20
64.2471461
40
2.8388047
50
283.6115016
51
290.5812912
0
ARC
8
0
10
48.4629292
20
64.6776875
40
3.2819986
50
277.7643511
51
283.6266933
0
ARC
8
0
10
48.3950622
20
65.1694796
40
3.7784509
50
272.7790238
51
277.7765458
0
ARC
8
0
10
48.3706213
20
65.6166168
40
4.2262482
50
269.9799465
51
272.8160768
0
ARC
8
0
10
48.3734381
20
57.2912262
40
4.099145
50
85.0979901
51
90.060048
0
ARC
8
0
10
48.4220957
20
57.8515559
40
3.5367071
50
79.4184511
51
85.1076839
0
ARC
8
0
10
48.5122908
20
58.3314963
40
3.0483654
50
72.9085811
51
79.4283666
0
ARC
8
0
10
48.6336258
20
58.7249215
40
2.636655
50
65.5173499
51
72.9161838
0
ARC
8
0
10
48.7765339
20
59.0373119
40
2.2931291
50
56.7117955
51
65.5323104
0
ARC
8
0
10
48.9301038
20
59.2705324
40
2.0138884
50
46.2663109
51
56.7222929
0
ARC
8
0
10
49.0793612
20
59.4259409
40
1.7984136
50
33.2554872
51
46.2794519
0
ARC
8
0
10
49.2085277
20
59.5100861
40
1.6442574
50
15.2123777
51
33.2717397
0
ARC
8
0
10
49.2728251
20
59.5295847
40
1.5770976
50
0.0157401
51
15.1417561
0
ARC
8
0
10
49.2582034
20
59.5321595
40
1.5917207
50
334.5005668
51
359.922912
0
ARC
8
0
10
49.1459455
20
59.5847011
40
1.715663
50
319.6861869
51
334.5307489
0
ARC
8
0
10
49.004022
20
59.7046348
40
1.9014754
50
308.0594094
51
319.6973309
0
ARC
8
0
10
48.8503467
20
59.9000536
40
2.1500803
50
298.5572849
51
308.0734857
0
ARC
8
0
10
48.7013317
20
60.1726511
40
2.4607484
50
290.5724294
51
298.570649
0
ARC
8
0
10
48.568075
20
60.5264439
40
2.8388047
50
283.6115015
51
290.5812912
0
ARC
8
0
10
48.4629292
20
60.9569854
40
3.2819986
50
277.7643511
51
283.6266933
0
ARC
8
0
10
48.3950622
20
61.4487775
40
3.7784509
50
272.7790238
51
277.7765458
0
ARC
8
0
10
48.3706213
20
61.8959148
40
4.2262482
50
269.9799465
51
272.8160768
0
ARC
8
0
10
48.3734381
20
53.5705242
40
4.099145
50
85.0979901
51
90.060048
0
ARC
8
0
10
48.4220957
20
54.1308537
40
3.5367072
50
79.418451
51
85.1076839
0
ARC
8
0
10
48.5122749
20
54.6107368
40
3.0484247
50
72.9086121
51
79.428271
0
ARC
8
0
10
48.6336403
20
55.0042615
40
2.6366104
50
65.5172556
51
72.9162159
0
ARC
8
0
10
48.7765315
20
55.3166097
40
2.2931299
50
56.7117389
51
65.5322534
0
ARC
8
0
10
48.9301014
20
55.5498293
40
2.0138901
50
46.2662638
51
56.7222423
0
ARC
8
0
10
49.0793586
20
55.705237
40
1.798416
50
33.2554549
51
46.2794121
0
ARC
8
0
10
49.2085212
20
55.7893804
40
1.644264
50
15.2123754
51
33.2716839
0
ARC
8
0
10
49.2728216
20
55.8088802
40
1.5771012
50
0.0157399
51
15.1417415
0
ARC
8
0
10
49.2582001
20
55.8114548
40
1.591724
50
334.5005935
51
359.9229182
0
ARC
8
0
10
49.1459428
20
55.8639962
40
1.7156657
50
319.68622
51
334.5307724
0
ARC
8
0
10
49.0040195
20
55.9839292
40
1.9014776
50
308.059455
51
319.6973711
0
ARC
8
0
10
48.8503443
20
56.1793471
40
2.1500817
50
298.5573395
51
308.0735384
0
ARC
8
0
10
48.7013459
20
56.4519104
40
2.4607117
50
290.5723986
51
298.5707397
0
ARC
8
0
10
48.5680749
20
56.8057374
40
2.838805
50
283.6115016
51
290.5812913
0
ARC
8
0
10
48.4629292
20
57.2362786
40
3.2819987
50
277.7643512
51
283.6266934
0
ARC
8
0
10
48.3950622
20
57.7280705
40
3.7784509
50
272.7790238
51
277.7765459
0
ARC
8
0
10
48.3706213
20
58.1752078
40
4.2262482
50
269.9799465
51
272.8160768
0
LINE
8
DEFAULT_255_2_778
10
48.3691421
20
71.3122442
11
48.3691421
21
65.111072
0
LINE
8
DEFAULT_255_2_778
10
48.3691421
20
53.9489599
11
48.3691421
21
49.1951421
0
ARC
8
0
10
22.3285193
20
61.0119463
40
4.0991279
50
85.0979788
51
90.0600483
0
ARC
8
0
10
22.3771754
20
61.5722609
40
3.5367051
50
79.4184422
51
85.107668
0
ARC
8
0
10
22.4673683
20
62.052196
40
3.048369
50
72.9085677
51
79.4283343
0
ARC
8
0
10
22.5887125
20
62.4456499
40
2.6366285
50
65.5172816
51
72.9161782
0
ARC
8
0
10
22.7316141
20
62.7580206
40
2.2931232
50
56.7117583
51
65.5322844
0
ARC
8
0
10
22.8851927
20
62.9912525
40
2.0138681
50
46.2662037
51
56.7222809
0
ARC
8
0
10
23.0344396
20
63.1466463
40
1.7984111
50
33.2554382
51
46.2794137
0
ARC
8
0
10
23.1636012
20
63.2307888
40
1.6442603
50
15.2123434
51
33.2716713
0
ARC
8
0
10
23.2279014
20
63.2502872
40
1.577098
50
0.0157399
51
15.1417557
0
ARC
8
0
10
23.2132765
20
63.2528623
40
1.5917242
50
334.5006116
51
359.9229032
0
ARC
8
0
10
23.1010172
20
63.3054048
40
1.7156682
50
319.6862712
51
334.5307826
0
ARC
8
0
10
22.9590813
20
63.425352
40
1.9014988
50
308.059569
51
319.6973378
0
ARC
8
0
10
22.8054036
20
63.6207824
40
2.1501142
50
298.5574449
51
308.0734845
0
ARC
8
0
10
22.6564193
20
63.8933292
40
2.4607228
50
290.5724365
51
298.5707276
0
ARC
8
0
10
22.5231558
20
64.2471376
40
2.8387962
50
283.6115166
51
290.5813155
0
ARC
8
0
10
22.4180103
20
64.6776729
40
3.2819841
50
277.7643687
51
283.6267265
0
ARC
8
0
10
22.3501424
20
65.1694751
40
3.7784464
50
272.7790343
51
277.7765532
0
ARC
8
0
10
22.3257024
20
65.6166008
40
4.2262323
50
269.9799464
51
272.8160823
0
ARC
8
0
10
22.3285193
20
57.2912433
40
4.0991279
50
85.0979788
51
90.0600483
0
ARC
8
0
10
22.3771754
20
57.8515579
40
3.5367051
50
79.4184422
51
85.107668
0
ARC
8
0
10
22.4673683
20
58.3314931
40
3.048369
50
72.9085677
51
79.4283343
0
ARC
8
0
10
22.5887125
20
58.724947
40
2.6366284
50
65.5172816
51
72.9161782
0
ARC
8
0
10
22.7316141
20
59.0373178
40
2.293123
50
56.7117584
51
65.5322845
0
ARC
8
0
10
22.8851928
20
59.2705498
40
2.0138678
50
46.2662038
51
56.7222809
0
ARC
8
0
10
23.0344398
20
59.4259437
40
1.7984108
50
33.2554383
51
46.2794138
0
ARC
8
0
10
23.1636052
20
59.5100876
40
1.6442562
50
15.2123332
51
33.2717028
0
ARC
8
0
10
23.2279018
20
59.5295847
40
1.5770976
50
0.0157399
51
15.1417558
0
ARC
8
0
10
23.2132765
20
59.5321599
40
1.5917242
50
334.5006132
51
359.9228977
0
ARC
8
0
10
23.1010236
20
59.5846989
40
1.7156609
50
319.6862257
51
334.5307974
0
ARC
8
0
10
22.959092
20
59.7046398
40
1.9014842
50
308.0595027
51
319.6973593
0
ARC
8
0
10
22.805418
20
59.9000603
40
2.1500896
50
298.5573635
51
308.073511
0
ARC
8
0
10
22.6564194
20
60.172627
40
2.4607227
50
290.5724365
51
298.5707276
0
ARC
8
0
10
22.5231558
20
60.5264355
40
2.8387962
50
283.6115166
51
290.5813155
0
ARC
8
0
10
22.4180103
20
60.9569709
40
3.2819841
50
277.7643687
51
283.6267265
0
ARC
8
0
10
22.3501424
20
61.448773
40
3.7784464
50
272.7790343
51
277.7765531
0
ARC
8
0
10
22.3257024
20
61.8958988
40
4.2262323
50
269.9799464
51
272.8160823
0
ARC
8
0
10
22.3285193
20
53.5705412
40
4.0991279
50
85.0979788
51
90.0600483
0
ARC
8
0
10
22.3771754
20
54.1308558
40
3.5367052
50
79.4184421
51
85.1076679
0
ARC
8
0
10
22.4673524
20
54.6107336
40
3.0484283
50
72.9085987
51
79.4282387
0
ARC
8
0
10
22.5887271
20
55.004287
40
2.6365838
50
65.5171872
51
72.9162104
0
ARC
8
0
10
22.7316117
20
55.3166157
40
2.2931238
50
56.7117018
51
65.5322274
0
ARC
8
0
10
22.8851904
20
55.5498467
40
2.0138695
50
46.2661568
51
56.7222303
0
ARC
8
0
10
23.0344372
20
55.7052399
40
1.7984132
50
33.255406
51
46.279374
0
ARC
8
0
10
23.1635987
20
55.7893819
40
1.6442628
50
15.2123309
51
33.2716469
0
ARC
8
0
10
23.2278982
20
55.8088802
40
1.5771012
50
0.0157397
51
15.1417412
0
ARC
8
0
10
23.2132732
20
55.8114552
40
1.5917275
50
334.5006399
51
359.922904
0
ARC
8
0
10
23.1010209
20
55.863994
40
1.7156636
50
319.6862588
51
334.5308209
0
ARC
8
0
10
22.9590895
20
55.9839342
40
1.9014864
50
308.0595483
51
319.6973995
0
ARC
8
0
10
22.8054156
20
56.1793538
40
2.150091
50
298.5574181
51
308.0735637
0
ARC
8
0
10
22.6564335
20
56.4518863
40
2.460686
50
290.5724057
51
298.5708182
0
ARC
8
0
10
22.5231557
20
56.805729
40
2.8387964
50
283.6115166
51
290.5813155
0
ARC
8
0
10
22.4180103
20
57.2362641
40
3.2819842
50
277.7643688
51
283.6267266
0
ARC
8
0
10
22.3501424
20
57.7280661
40
3.7784464
50
272.7790343
51
277.7765532
0
ARC
8
0
10
22.3257024
20
58.1751918
40
4.2262323
50
269.9799464
51
272.8160823
0
LINE
8
DEFAULT_255_2_778
10
22.3242232
20
71.3122442
11
22.3242232
21
65.111072
0
LINE
8
DEFAULT_255_2_778
10
22.3242232
20
53.9489599
11
22.3242232
21
49.1951421
0
LINE
8
DEFAULT_255_2_778
10
22.3242314
20
48.9892432
11
48.3691525
21
48.9892432
0
ARC
8
0
10
49.6136725
20
32.4865381
40
4.099145
50
85.0979901
51
90.060048
0
ARC
8
0
10
49.66233
20
33.0468678
40
3.5367071
50
79.4184511
51
85.1076839
0
ARC
8
0
10
49.7525252
20
33.5268082
40
3.0483655
50
72.9085811
51
79.4283666
0
ARC
8
0
10
49.8738601
20
33.9202333
40
2.6366551
50
65.5173499
51
72.9161838
0
ARC
8
0
10
50.0167682
20
34.2326236
40
2.2931292
50
56.7117954
51
65.5323104
0
ARC
8
0
10
50.1703381
20
34.465844
40
2.0138886
50
46.2663108
51
56.7222929
0
ARC
8
0
10
50.3195953
20
34.6212524
40
1.7984139
50
33.2554871
51
46.2794517
0
ARC
8
0
10
50.4487581
20
34.7053962
40
1.6442615
50
15.212388
51
33.2717082
0
ARC
8
0
10
50.5130591
20
34.7248961
40
1.577098
50
0.01574
51
15.141756
0
ARC
8
0
10
50.4984378
20
34.7274708
40
1.5917206
50
334.5005652
51
359.9229175
0
ARC
8
0
10
50.3861735
20
34.7800159
40
1.7156703
50
319.6862324
51
334.5307341
0
ARC
8
0
10
50.2442456
20
34.899956
40
1.90149
50
308.0594757
51
319.6973094
0
ARC
8
0
10
50.0905666
20
35.0953846
40
2.1501049
50
298.5573663
51
308.0734592
0
ARC
8
0
10
49.941566
20
35.3679622
40
2.4607485
50
290.5724294
51
298.5706491
0
ARC
8
0
10
49.8083094
20
35.721755
40
2.8388047
50
283.6115016
51
290.5812912
0
ARC
8
0
10
49.7031636
20
36.1522964
40
3.2819986
50
277.7643511
51
283.6266933
0
ARC
8
0
10
49.6352965
20
36.6440885
40
3.7784509
50
272.7790238
51
277.7765458
0
ARC
8
0
10
49.6108556
20
37.0912257
40
4.2262482
50
269.9799465
51
272.8160768
0
ARC
8
0
10
49.6136725
20
28.7658351
40
4.099145
50
85.0979901
51
90.060048
0
ARC
8
0
10
49.66233
20
29.3261647
40
3.5367071
50
79.4184511
51
85.1076839
0
ARC
8
0
10
49.7525252
20
29.8061051
40
3.0483655
50
72.9085811
51
79.4283666
0
ARC
8
0
10
49.8738601
20
30.1995303
40
2.6366551
50
65.5173499
51
72.9161838
0
ARC
8
0
10
50.0167682
20
30.5119205
40
2.2931292
50
56.7117954
51
65.5323104
0
ARC
8
0
10
50.1703381
20
30.745141
40
2.0138886
50
46.2663108
51
56.7222929
0
ARC
8
0
10
50.3195953
20
30.9005494
40
1.7984139
50
33.2554871
51
46.2794517
0
ARC
8
0
10
50.4487581
20
30.9846932
40
1.6442615
50
15.212388
51
33.2717082
0
ARC
8
0
10
50.5130591
20
31.0041931
40
1.577098
50
0.01574
51
15.141756
0
ARC
8
0
10
50.4984378
20
31.0067678
40
1.5917206
50
334.5005652
51
359.9229175
0
ARC
8
0
10
50.3861735
20
31.0593129
40
1.7156703
50
319.6862324
51
334.5307341
0
ARC
8
0
10
50.2442456
20
31.179253
40
1.90149
50
308.0594757
51
319.6973094
0
ARC
8
0
10
50.0905666
20
31.3746816
40
2.1501049
50
298.5573663
51
308.0734592
0
ARC
8
0
10
49.941566
20
31.6472592
40
2.4607485
50
290.5724294
51
298.5706491
0
ARC
8
0
10
49.8083094
20
32.0010519
40
2.8388047
50
283.6115016
51
290.5812912
0
ARC
8
0
10
49.7031636
20
32.4315934
40
3.2819986
50
277.7643511
51
283.6266933
0
ARC
8
0
10
49.6352965
20
32.9233854
40
3.7784509
50
272.7790238
51
277.7765458
0
ARC
8
0
10
49.6108556
20
33.3705227
40
4.2262482
50
269.9799465
51
272.8160768
0
ARC
8
0
10
49.6136725
20
25.0451321
40
4.099145
50
85.0979901
51
90.060048
0
ARC
8
0
10
49.66233
20
25.6054617
40
3.5367071
50
79.4184511
51
85.1076839
0
ARC
8
0
10
49.7525252
20
26.0854021
40
3.0483655
50
72.9085811
51
79.4283666
0
ARC
8
0
10
49.8738601
20
26.4788273
40
2.6366551
50
65.5173499
51
72.9161838
0
ARC
8
0
10
50.0167682
20
26.7912175
40
2.2931292
50
56.7117954
51
65.5323104
0
ARC
8
0
10
50.1703381
20
27.0244379
40
2.0138886
50
46.2663108
51
56.7222929
0
ARC
8
0
10
50.3195953
20
27.1798463
40
1.7984139
50
33.2554871
51
46.2794517
0
ARC
8
0
10
50.4487581
20
27.2639902
40
1.6442615
50
15.212388
51
33.2717082
0
ARC
8
0
10
50.5130591
20
27.2834901
40
1.577098
50
0.01574
51
15.141756
0
ARC
8
0
10
50.4984378
20
27.2860647
40
1.5917206
50
334.5005652
51
359.9229175
0
ARC
8
0
10
50.3861735
20
27.3386098
40
1.7156703
50
319.6862324
51
334.5307341
0
ARC
8
0
10
50.2442456
20
27.4585499
40
1.90149
50
308.0594757
51
319.6973094
0
ARC
8
0
10
50.0905666
20
27.6539786
40
2.1501049
50
298.5573663
51
308.0734592
0
ARC
8
0
10
49.941566
20
27.9265562
40
2.4607485
50
290.5724294
51
298.5706491
0
ARC
8
0
10
49.8083094
20
28.2803489
40
2.8388047
50
283.6115016
51
290.5812912
0
ARC
8
0
10
49.7031636
20
28.7108904
40
3.2819986
50
277.7643511
51
283.6266933
0
ARC
8
0
10
49.6352965
20
29.2026824
40
3.7784509
50
272.7790238
51
277.7765458
0
ARC
8
0
10
49.6108556
20
29.6498197
40
4.2262482
50
269.9799465
51
272.8160768
0
LINE
8
DEFAULT_255_2_778
10
49.6093764
20
42.7868546
11
49.6093764
21
36.5856809
0
LINE
8
DEFAULT_255_2_778
10
49.6093764
20
25.4235718
11
49.6093764
21
20.669752
0
ARC
8
0
10
23.5687617
20
32.4877741
40
4.0991279
50
85.0979788
51
90.0600483
0
ARC
8
0
10
23.6174178
20
33.0480888
40
3.5367051
50
79.4184422
51
85.107668
0
ARC
8
0
10
23.7076108
20
33.5280239
40
3.048369
50
72.9085677
51
79.4283343
0
ARC
8
0
10
23.828955
20
33.9214777
40
2.6366285
50
65.5172816
51
72.9161782
0
ARC
8
0
10
23.9718565
20
34.2338485
40
2.2931232
50
56.7117583
51
65.5322844
0
ARC
8
0
10
24.1254352
20
34.4670803
40
2.0138681
50
46.2662037
51
56.7222809
0
ARC
8
0
10
24.2746821
20
34.6224742
40
1.7984111
50
33.2554382
51
46.2794137
0
ARC
8
0
10
24.4038437
20
34.7066167
40
1.6442603
50
15.2123434
51
33.2716713
0
ARC
8
0
10
24.4681439
20
34.7261151
40
1.577098
50
0.0157399
51
15.1417557
0
ARC
8
0
10
24.453519
20
34.7286901
40
1.5917242
50
334.5006116
51
359.9229032
0
ARC
8
0
10
24.3412597
20
34.7812326
40
1.7156682
50
319.6862712
51
334.5307826
0
ARC
8
0
10
24.1993238
20
34.9011799
40
1.9014988
50
308.059569
51
319.6973378
0
ARC
8
0
10
24.0456461
20
35.0966103
40
2.1501142
50
298.5574449
51
308.0734845
0
ARC
8
0
10
23.8966618
20
35.369157
40
2.4607228
50
290.5724365
51
298.5707276
0
ARC
8
0
10
23.7633983
20
35.7229655
40
2.8387962
50
283.6115166
51
290.5813155
0
ARC
8
0
10
23.6582528
20
36.1535008
40
3.2819841
50
277.7643687
51
283.6267265
0
ARC
8
0
10
23.5903849
20
36.6453029
40
3.7784464
50
272.7790343
51
277.7765532
0
ARC
8
0
10
23.5659449
20
37.0924287
40
4.2262323
50
269.9799464
51
272.8160823
0
ARC
8
0
10
23.5687617
20
28.7670711
40
4.0991279
50
85.0979788
51
90.0600483
0
ARC
8
0
10
23.6174178
20
29.3273857
40
3.5367051
50
79.4184422
51
85.107668
0
ARC
8
0
10
23.7076108
20
29.8073209
40
3.048369
50
72.9085677
51
79.4283343
0
ARC
8
0
10
23.828955
20
30.2007747
40
2.6366285
50
65.5172816
51
72.9161782
0
ARC
8
0
10
23.9718565
20
30.5131454
40
2.2931232
50
56.7117583
51
65.5322844
0
ARC
8
0
10
24.1254352
20
30.7463773
40
2.0138681
50
46.2662037
51
56.7222809
0
ARC
8
0
10
24.2746821
20
30.9017712
40
1.7984111
50
33.2554382
51
46.2794137
0
ARC
8
0
10
24.4038437
20
30.9859137
40
1.6442603
50
15.2123434
51
33.2716713
0
ARC
8
0
10
24.4681439
20
31.005412
40
1.577098
50
0.0157399
51
15.1417557
0
ARC
8
0
10
24.453519
20
31.0079871
40
1.5917242
50
334.5006116
51
359.9229032
0
ARC
8
0
10
24.3412597
20
31.0605296
40
1.7156682
50
319.6862712
51
334.5307826
0
ARC
8
0
10
24.1993238
20
31.1804769
40
1.9014988
50
308.059569
51
319.6973378
0
ARC
8
0
10
24.0456461
20
31.3759072
40
2.1501142
50
298.5574449
51
308.0734845
0
ARC
8
0
10
23.8966618
20
31.648454
40
2.4607228
50
290.5724365
51
298.5707276
0
ARC
8
0
10
23.7633983
20
32.0022625
40
2.8387962
50
283.6115166
51
290.5813155
0
ARC
8
0
10
23.6582528
20
32.4327978
40
3.2819841
50
277.7643687
51
283.6267265
0
ARC
8
0
10
23.5903849
20
32.9245999
40
3.7784464
50
272.7790343
51
277.7765532
0
ARC
8
0
10
23.5659449
20
33.3717257
40
4.2262323
50
269.9799464
51
272.8160823
0
ARC
8
0
10
23.5687617
20
25.0463681
40
4.0991279
50
85.0979788
51
90.0600483
0
ARC
8
0
10
23.6174178
20
25.6066827
40
3.5367051
50
79.4184422
51
85.107668
0
ARC
8
0
10
23.7076108
20
26.0866178
40
3.048369
50
72.9085677
51
79.4283343
0
ARC
8
0
10
23.828955
20
26.4800717
40
2.6366285
50
65.5172816
51
72.9161782
0
ARC
8
0
10
23.9718565
20
26.7924424
40
2.2931232
50
56.7117583
51
65.5322844
0
ARC
8
0
10
24.1254352
20
27.0256743
40
2.0138681
50
46.2662037
51
56.7222809
0
ARC
8
0
10
24.2746821
20
27.1810681
40
1.7984111
50
33.2554382
51
46.2794137
0
ARC
8
0
10
24.4038437
20
27.2652107
40
1.6442603
50
15.2123434
51
33.2716713
0
ARC
8
0
10
24.4681439
20
27.284709
40
1.577098
50
0.0157399
51
15.1417557
0
ARC
8
0
10
24.453519
20
27.2872841
40
1.5917242
50
334.5006116
51
359.9229032
0
ARC
8
0
10
24.3412597
20
27.3398266
40
1.7156682
50
319.6862712
51
334.5307826
0
ARC
8
0
10
24.1993238
20
27.4597738
40
1.9014988
50
308.059569
51
319.6973378
0
ARC
8
0
10
24.0456461
20
27.6552042
40
2.1501142
50
298.5574449
51
308.0734845
0
ARC
8
0
10
23.8966618
20
27.927751
40
2.4607228
50
290.5724365
51
298.5707276
0
ARC
8
0
10
23.7633983
20
28.2815595
40
2.8387962
50
283.6115166
51
290.5813155
0
ARC
8
0
10
23.6582528
20
28.7120947
40
3.2819841
50
277.7643687
51
283.6267265
0
ARC
8
0
10
23.5903849
20
29.2038969
40
3.7784464
50
272.7790343
51
277.7765532
0
ARC
8
0
10
23.5659449
20
29.6510226
40
4.2262323
50
269.9799464
51
272.8160823
0
LINE
8
DEFAULT_255_2_778
10
34.7265748
20
16.7431504
11
28.5254031
21
16.7431504
0
LINE
8
DEFAULT_255_2_778
10
28.5254031
20
16.7431504
11
28.5254031
21
39.0673685
0
LINE
8
DEFAULT_255_2_778
10
28.5254031
20
39.0673685
11
23.5644657
21
39.0673685
0
LINE
8
DEFAULT_255_2_778
10
23.5644657
20
39.0673685
11
23.5644657
21
36.5868998
0
LINE
8
DEFAULT_255_2_778
10
23.5644657
20
25.4247908
11
23.5644657
21
20.4638534
0
LINE
8
DEFAULT_255_2_778
10
23.5644657
20
20.4638534
11
49.6093868
21
20.4638534
0
ARC
8
0
10
34.7308619
20
12.6440306
40
4.0991352
50
85.0979845
51
90.0600482
0
ARC
8
0
10
34.7795195
20
13.2043591
40
3.5366985
50
79.4184387
51
85.1076786
0
ARC
8
0
10
34.8697145
20
13.6842983
40
3.048358
50
72.908561
51
79.428355
0
ARC
8
0
10
34.9910493
20
14.0777224
40
2.6366487
50
65.517321
51
72.9161648
0
ARC
8
0
10
35.1339491
20
14.3900954
40
2.293142
50
56.7118093
51
65.5322671
0
ARC
8
0
10
35.2875265
20
14.6233305
40
2.0138848
50
46.266266
51
56.7222597
0
ARC
8
0
10
35.4367739
20
14.778729
40
1.7984241
50
33.2555066
51
46.2793906
0
ARC
8
0
10
35.5659451
20
14.8628804
40
1.6442604
50
15.2123437
51
33.2716716
0
ARC
8
0
10
35.6302455
20
14.8823788
40
1.577098
50
0.0157399
51
15.1417558
0
ARC
8
0
10
35.6156206
20
14.8849539
40
1.5917243
50
334.5006111
51
359.9229029
0
ARC
8
0
10
35.5033525
20
14.9375029
40
1.715679
50
319.6862942
51
334.5307144
0
ARC
8
0
10
35.3614338
20
15.0574355
40
1.901487
50
308.0595112
51
319.6973564
0
ARC
8
0
10
35.2077554
20
15.2528629
40
2.1501005
50
298.5573959
51
308.0735003
0
ARC
8
0
10
35.0587551
20
15.5254392
40
2.4607428
50
290.572452
51
298.5706822
0
ARC
8
0
10
34.9254986
20
15.8792308
40
2.8387978
50
283.6115165
51
290.5813154
0
ARC
8
0
10
34.820353
20
16.3097709
40
3.2819904
50
277.76436
51
283.6267099
0
ARC
8
0
10
34.7524859
20
16.8015617
40
3.7784414
50
272.779027
51
277.7765555
0
ARC
8
0
10
34.728045
20
17.248695
40
4.2262348
50
269.9799464
51
272.8160823
0
ARC
8
0
10
34.7308619
20
8.9233276
40
4.0991352
50
85.0979845
51
90.0600482
0
ARC
8
0
10
34.7795195
20
9.4836561
40
3.5366985
50
79.4184387
51
85.1076786
0
ARC
8
0
10
34.8697145
20
9.9635953
40
3.048358
50
72.908561
51
79.428355
0
ARC
8
0
10
34.9910493
20
10.3570193
40
2.6366487
50
65.517321
51
72.9161648
0
ARC
8
0
10
35.1339491
20
10.6693924
40
2.293142
50
56.7118093
51
65.5322671
0
ARC
8
0
10
35.2875265
20
10.9026275
40
2.0138848
50
46.266266
51
56.7222597
0
ARC
8
0
10
35.4367739
20
11.058026
40
1.7984241
50
33.2555066
51
46.2793906
0
ARC
8
0
10
35.5659451
20
11.1421774
40
1.6442604
50
15.2123437
51
33.2716716
0
ARC
8
0
10
35.6302455
20
11.1616758
40
1.577098
50
0.0157399
51
15.1417558
0
ARC
8
0
10
35.6156206
20
11.1642509
40
1.5917243
50
334.5006111
51
359.9229029
0
ARC
8
0
10
35.5033525
20
11.2167998
40
1.715679
50
319.6862942
51
334.5307144
0
ARC
8
0
10
35.3614338
20
11.3367325
40
1.901487
50
308.0595112
51
319.6973564
0
ARC
8
0
10
35.2077554
20
11.5321599
40
2.1501005
50
298.5573959
51
308.0735003
0
ARC
8
0
10
35.0587551
20
11.8047362
40
2.4607428
50
290.572452
51
298.5706822
0
ARC
8
0
10
34.9254986
20
12.1585278
40
2.8387978
50
283.6115165
51
290.5813154
0
ARC
8
0
10
34.820353
20
12.5890679
40
3.2819904
50
277.76436
51
283.6267099
0
ARC
8
0
10
34.7524859
20
13.0808587
40
3.7784414
50
272.779027
51
277.7765555
0
ARC
8
0
10
34.728045
20
13.527992
40
4.2262348
50
269.9799464
51
272.8160823
0
ARC
8
0
10
34.7308619
20
5.2026246
40
4.0991352
50
85.0979845
51
90.0600482
0
ARC
8
0
10
34.7795195
20
5.7629531
40
3.5366985
50
79.4184387
51
85.1076786
0
ARC
8
0
10
34.8697145
20
6.2428923
40
3.048358
50
72.908561
51
79.428355
0
ARC
8
0
10
34.9910493
20
6.6363163
40
2.6366487
50
65.517321
51
72.9161648
0
ARC
8
0
10
35.1339491
20
6.9486894
40
2.293142
50
56.7118093
51
65.5322671
0
ARC
8
0
10
35.2875265
20
7.1819244
40
2.0138848
50
46.266266
51
56.7222597
0
ARC
8
0
10
35.4367739
20
7.337323
40
1.7984241
50
33.2555066
51
46.2793906
0
ARC
8
0
10
35.5659451
20
7.4214744
40
1.6442604
50
15.2123437
51
33.2716716
0
ARC
8
0
10
35.6302455
20
7.4409728
40
1.577098
50
0.0157399
51
15.1417558
0
ARC
8
0
10
35.6156206
20
7.4435479
40
1.5917243
50
334.5006111
51
359.9229029
0
ARC
8
0
10
35.5033525
20
7.4960968
40
1.715679
50
319.6862942
51
334.5307144
0
ARC
8
0
10
35.3614338
20
7.6160295
40
1.901487
50
308.0595112
51
319.6973564
0
ARC
8
0
10
35.2077554
20
7.8114569
40
2.1501005
50
298.5573959
51
308.0735003
0
ARC
8
0
10
35.0587551
20
8.0840332
40
2.4607428
50
290.572452
51
298.5706822
0
ARC
8
0
10
34.9254986
20
8.4378247
40
2.8387978
50
283.6115165
51
290.5813154
0
ARC
8
0
10
34.820353
20
8.8683649
40
3.2819904
50
277.76436
51
283.6267099
0
ARC
8
0
10
34.7524859
20
9.3601557
40
3.7784414
50
272.779027
51
277.7765555
0
ARC
8
0
10
34.728045
20
9.807289
40
4.2262348
50
269.9799464
51
272.8160823
0
LINE
8
DEFAULT_255_2_778
10
34.7265659
20
5.5810545
11
34.7265659
21
0.6201172
0
ARC
8
0
10
22.3285193
20
12.6440313
40
4.0991279
50
85.0979788
51
90.0600483
0
ARC
8
0
10
22.3771754
20
13.2043459
40
3.5367051
50
79.4184422
51
85.107668
0
ARC
8
0
10
22.4673683
20
13.684281
40
3.048369
50
72.9085677
51
79.4283343
0
ARC
8
0
10
22.5887125
20
14.0777349
40
2.6366285
50
65.5172816
51
72.9161782
0
ARC
8
0
10
22.7316141
20
14.3901056
40
2.2931232
50
56.7117583
51
65.5322844
0
ARC
8
0
10
22.8851927
20
14.6233375
40
2.0138681
50
46.2662037
51
56.7222809
0
ARC
8
0
10
23.0344396
20
14.7787313
40
1.7984111
50
33.2554382
51
46.2794137
0
ARC
8
0
10
23.1636012
20
14.8628739
40
1.6442603
50
15.2123434
51
33.2716713
0
ARC
8
0
10
23.2279014
20
14.8823722
40
1.577098
50
0.0157399
51
15.1417557
0
ARC
8
0
10
23.2132765
20
14.8849473
40
1.5917242
50
334.5006116
51
359.9229032
0
ARC
8
0
10
23.1010172
20
14.9374898
40
1.7156682
50
319.6862712
51
334.5307826
0
ARC
8
0
10
22.9590813
20
15.057437
40
1.9014988
50
308.059569
51
319.6973378
0
ARC
8
0
10
22.8054036
20
15.2528674
40
2.1501142
50
298.5574449
51
308.0734845
0
ARC
8
0
10
22.6564193
20
15.5254142
40
2.4607228
50
290.5724365
51
298.5707276
0
ARC
8
0
10
22.5231558
20
15.8792227
40
2.8387962
50
283.6115166
51
290.5813155
0
ARC
8
0
10
22.4180103
20
16.309758
40
3.2819841
50
277.7643687
51
283.6267265
0
ARC
8
0
10
22.3501424
20
16.8015601
40
3.7784464
50
272.7790343
51
277.7765532
0
ARC
8
0
10
22.3257024
20
17.2486859
40
4.2262323
50
269.9799464
51
272.8160823
0
ARC
8
0
10
22.3285193
20
8.9233283
40
4.0991279
50
85.0979788
51
90.0600483
0
ARC
8
0
10
22.3771754
20
9.4836429
40
3.5367051
50
79.4184422
51
85.107668
0
ARC
8
0
10
22.4673683
20
9.963578
40
3.048369
50
72.9085677
51
79.4283343
0
ARC
8
0
10
22.5887125
20
10.3570319
40
2.6366285
50
65.5172816
51
72.9161782
0
ARC
8
0
10
22.7316141
20
10.6694026
40
2.2931232
50
56.7117583
51
65.5322844
0
ARC
8
0
10
22.8851927
20
10.9026345
40
2.0138681
50
46.2662037
51
56.7222809
0
ARC
8
0
10
23.0344396
20
11.0580283
40
1.7984111
50
33.2554382
51
46.2794137
0
ARC
8
0
10
23.1636012
20
11.1421708
40
1.6442603
50
15.2123434
51
33.2716713
0
ARC
8
0
10
23.2279014
20
11.1616692
40
1.577098
50
0.0157399
51
15.1417557
0
ARC
8
0
10
23.2132765
20
11.1642443
40
1.5917242
50
334.5006116
51
359.9229032
0
ARC
8
0
10
23.1010172
20
11.2167868
40
1.7156682
50
319.6862712
51
334.5307826
0
ARC
8
0
10
22.9590813
20
11.336734
40
1.9014988
50
308.059569
51
319.6973378
0
ARC
8
0
10
22.8054036
20
11.5321644
40
2.1501142
50
298.5574449
51
308.0734845
0
ARC
8
0
10
22.6564193
20
11.8047112
40
2.4607228
50
290.5724365
51
298.5707276
0
ARC
8
0
10
22.5231558
20
12.1585196
40
2.8387962
50
283.6115166
51
290.5813155
0
ARC
8
0
10
22.4180103
20
12.5890549
40
3.2819841
50
277.7643687
51
283.6267265
0
ARC
8
0
10
22.3501424
20
13.0808571
40
3.7784464
50
272.7790343
51
277.7765532
0
ARC
8
0
10
22.3257024
20
13.5279828
40
4.2262323
50
269.9799464
51
272.8160823
0
ARC
8
0
10
22.3285193
20
5.2026253
40
4.0991279
50
85.0979788
51
90.0600483
0
ARC
8
0
10
22.3771754
20
5.7629399
40
3.5367051
50
79.4184422
51
85.107668
0
ARC
8
0
10
22.4673683
20
6.242875
40
3.048369
50
72.9085677
51
79.4283343
0
ARC
8
0
10
22.5887125
20
6.6363288
40
2.6366285
50
65.5172816
51
72.9161782
0
ARC
8
0
10
22.7316141
20
6.9486996
40
2.2931232
50
56.7117583
51
65.5322844
0
ARC
8
0
10
22.8851927
20
7.1819314
40
2.0138681
50
46.2662037
51
56.7222809
0
ARC
8
0
10
23.0344396
20
7.3373253
40
1.7984111
50
33.2554382
51
46.2794137
0
ARC
8
0
10
23.1636012
20
7.4214678
40
1.6442603
50
15.2123434
51
33.2716713
0
ARC
8
0
10
23.2279014
20
7.4409662
40
1.577098
50
0.0157399
51
15.1417557
0
ARC
8
0
10
23.2132765
20
7.4435412
40
1.5917242
50
334.5006116
51
359.9229032
0
ARC
8
0
10
23.1010172
20
7.4960837
40
1.7156682
50
319.6862712
51
334.5307826
0
ARC
8
0
10
22.9590813
20
7.616031
40
1.9014988
50
308.059569
51
319.6973378
0
ARC
8
0
10
22.8054036
20
7.8114614
40
2.1501142
50
298.5574449
51
308.0734845
0
ARC
8
0
10
22.6564193
20
8.0840081
40
2.4607228
50
290.5724365
51
298.5707276
0
ARC
8
0
10
22.5231558
20
8.4378166
40
2.8387962
50
283.6115166
51
290.5813155
0
ARC
8
0
10
22.4180103
20
8.8683519
40
3.2819841
50
277.7643687
51
283.6267265
0
ARC
8
0
10
22.3501424
20
9.360154
40
3.7784464
50
272.7790343
51
277.7765532
0
ARC
8
0
10
22.3257024
20
9.8072798
40
4.2262323
50
269.9799464
51
272.8160823
0
LINE
8
DEFAULT_255_2_778
10
22.3242232
20
5.5810479
11
22.3242232
21
-0.0000066
0
LINE
8
DEFAULT_255_2_778
10
49.6093868
20
42.7880847
11
16.1230597
21
42.7880847
0
LINE
8
DEFAULT_255_2_778
10
16.1230597
20
42.7880847
11
16.1230597
21
16.7431636
0
LINE
8
DEFAULT_255_2_778
10
16.1230597
20
16.7431636
11
22.3242314
21
16.7431636
0
ARC
8
0
10
37.2113395
20
32.4877571
40
4.099145
50
85.0979901
51
90.060048
0
ARC
8
0
10
37.2599971
20
33.0480867
40
3.5367071
50
79.4184511
51
85.1076839
0
ARC
8
0
10
37.3501922
20
33.5280271
40
3.0483655
50
72.9085811
51
79.4283666
0
ARC
8
0
10
37.4715271
20
33.9214522
40
2.6366551
50
65.5173499
51
72.9161838
0
ARC
8
0
10
37.6144352
20
34.2338425
40
2.2931292
50
56.7117954
51
65.5323104
0
ARC
8
0
10
37.7680051
20
34.4670629
40
2.0138886
50
46.2663108
51
56.7222929
0
ARC
8
0
10
37.9172623
20
34.6224713
40
1.7984139
50
33.2554871
51
46.2794517
0
ARC
8
0
10
38.0464251
20
34.7066152
40
1.6442615
50
15.212388
51
33.2717082
0
ARC
8
0
10
38.1107261
20
34.7261151
40
1.577098
50
0.01574
51
15.141756
0
ARC
8
0
10
38.0961048
20
34.7286897
40
1.5917206
50
334.5005652
51
359.9229175
0
ARC
8
0
10
37.9838405
20
34.7812348
40
1.7156703
50
319.6862324
51
334.5307341
0
ARC
8
0
10
37.8419127
20
34.9011749
40
1.90149
50
308.0594757
51
319.6973094
0
ARC
8
0
10
37.6882337
20
35.0966035
40
2.1501049
50
298.5573663
51
308.0734592
0
ARC
8
0
10
37.539233
20
35.3691812
40
2.4607485
50
290.5724294
51
298.5706491
0
ARC
8
0
10
37.4059764
20
35.7229739
40
2.8388047
50
283.6115016
51
290.5812912
0
ARC
8
0
10
37.3008306
20
36.1535153
40
3.2819986
50
277.7643511
51
283.6266933
0
ARC
8
0
10
37.2329635
20
36.6453074
40
3.7784509
50
272.7790238
51
277.7765458
0
ARC
8
0
10
37.2085226
20
37.0924447
40
4.2262482
50
269.9799465
51
272.8160768
0
ARC
8
0
10
37.2113395
20
28.7670541
40
4.099145
50
85.0979901
51
90.060048
0
ARC
8
0
10
37.2599971
20
29.3273837
40
3.5367071
50
79.4184511
51
85.1076839
0
ARC
8
0
10
37.3501922
20
29.8073241
40
3.0483655
50
72.9085811
51
79.4283666
0
ARC
8
0
10
37.4715271
20
30.2007492
40
2.6366551
50
65.5173499
51
72.9161838
0
ARC
8
0
10
37.6144352
20
30.5131395
40
2.2931292
50
56.7117954
51
65.5323104
0
ARC
8
0
10
37.7680051
20
30.7463599
40
2.0138886
50
46.2663108
51
56.7222929
0
ARC
8
0
10
37.9172623
20
30.9017683
40
1.7984139
50
33.2554871
51
46.2794517
0
ARC
8
0
10
38.0464251
20
30.9859121
40
1.6442615
50
15.212388
51
33.2717082
0
ARC
8
0
10
38.1107261
20
31.005412
40
1.577098
50
0.01574
51
15.141756
0
ARC
8
0
10
38.0961048
20
31.0079867
40
1.5917206
50
334.5005652
51
359.9229175
0
ARC
8
0
10
37.9838405
20
31.0605318
40
1.7156703
50
319.6862324
51
334.5307341
0
ARC
8
0
10
37.8419127
20
31.1804719
40
1.90149
50
308.0594757
51
319.6973094
0
ARC
8
0
10
37.6882337
20
31.3759005
40
2.1501049
50
298.5573663
51
308.0734592
0
ARC
8
0
10
37.539233
20
31.6484781
40
2.4607485
50
290.5724294
51
298.5706491
0
ARC
8
0
10
37.4059764
20
32.0022709
40
2.8388047
50
283.6115016
51
290.5812912
0
ARC
8
0
10
37.3008306
20
32.4328123
40
3.2819986
50
277.7643511
51
283.6266933
0
ARC
8
0
10
37.2329635
20
32.9246044
40
3.7784509
50
272.7790238
51
277.7765458
0
ARC
8
0
10
37.2085226
20
33.3717416
40
4.2262482
50
269.9799465
51
272.8160768
0
ARC
8
0
10
37.2113395
20
25.046351
40
4.099145
50
85.0979901
51
90.060048
0
ARC
8
0
10
37.2599971
20
25.6066807
40
3.5367071
50
79.4184511
51
85.1076839
0
ARC
8
0
10
37.3501922
20
26.086621
40
3.0483655
50
72.9085811
51
79.4283666
0
ARC
8
0
10
37.4715271
20
26.4800462
40
2.6366551
50
65.5173499
51
72.9161838
0
ARC
8
0
10
37.6144352
20
26.7924365
40
2.2931292
50
56.7117954
51
65.5323104
0
ARC
8
0
10
37.7680051
20
27.0256569
40
2.0138886
50
46.2663108
51
56.7222929
0
ARC
8
0
10
37.9172623
20
27.1810653
40
1.7984139
50
33.2554871
51
46.2794517
0
ARC
8
0
10
38.0464251
20
27.2652091
40
1.6442615
50
15.212388
51
33.2717082
0
ARC
8
0
10
38.1107261
20
27.284709
40
1.577098
50
0.01574
51
15.141756
0
ARC
8
0
10
38.0961048
20
27.2872837
40
1.5917206
50
334.5005652
51
359.9229175
0
ARC
8
0
10
37.9838405
20
27.3398288
40
1.7156703
50
319.6862324
51
334.5307341
0
ARC
8
0
10
37.8419127
20
27.4597689
40
1.90149
50
308.0594757
51
319.6973094
0
ARC
8
0
10
37.6882337
20
27.6551975
40
2.1501049
50
298.5573663
51
308.0734592
0
ARC
8
0
10
37.539233
20
27.9277751
40
2.4607485
50
290.5724294
51
298.5706491
0
ARC
8
0
10
37.4059764
20
28.2815679
40
2.8388047
50
283.6115016
51
290.5812912
0
ARC
8
0
10
37.3008306
20
28.7121093
40
3.2819986
50
277.7643511
51
283.6266933
0
ARC
8
0
10
37.2329635
20
29.2039014
40
3.7784509
50
272.7790238
51
277.7765458
0
ARC
8
0
10
37.2085226
20
29.6510386
40
4.2262482
50
269.9799465
51
272.8160768
0
LINE
8
DEFAULT_255_2_778
10
48.3691525
20
16.7431504
11
43.4082151
21
16.7431504
0
LINE
8
DEFAULT_255_2_778
10
43.4082151
20
16.7431504
11
43.4082151
21
39.0673685
0
LINE
8
DEFAULT_255_2_778
10
43.4082151
20
39.0673685
11
37.2070434
21
39.0673685
0
LINE
8
DEFAULT_255_2_778
10
37.2070434
20
39.0673685
11
37.2070434
21
36.5868998
0
LINE
8
DEFAULT_255_2_778
10
37.2070434
20
25.4247908
11
37.2070434
21
20.6709709
0
ARC
8
0
10
48.3734381
20
12.6427687
40
4.099145
50
85.0979901
51
90.060048
0
ARC
8
0
10
48.4220957
20
13.2030983
40
3.5367071
50
79.4184511
51
85.1076839
0
ARC
8
0
10
48.5122908
20
13.6830387
40
3.0483655
50
72.9085811
51
79.4283666
0
ARC
8
0
10
48.6336257
20
14.0764639
40
2.6366551
50
65.5173499
51
72.9161838
0
ARC
8
0
10
48.7765339
20
14.3888541
40
2.2931292
50
56.7117954
51
65.5323104
0
ARC
8
0
10
48.9301037
20
14.6220745
40
2.0138886
50
46.2663108
51
56.7222929
0
ARC
8
0
10
49.079361
20
14.7774829
40
1.7984139
50
33.2554871
51
46.2794517
0
ARC
8
0
10
49.2085237
20
14.8616268
40
1.6442615
50
15.212388
51
33.2717082
0
ARC
8
0
10
49.2728247
20
14.8811267
40
1.577098
50
0.01574
51
15.141756
0
ARC
8
0
10
49.2582035
20
14.8837013
40
1.5917206
50
334.5005652
51
359.9229175
0
ARC
8
0
10
49.1459391
20
14.9362464
40
1.7156703
50
319.6862324
51
334.5307341
0
ARC
8
0
10
49.0040113
20
15.0561865
40
1.90149
50
308.0594757
51
319.6973094
0
ARC
8
0
10
48.8503323
20
15.2516151
40
2.1501049
50
298.5573663
51
308.0734592
0
ARC
8
0
10
48.7013317
20
15.5241928
40
2.4607485
50
290.5724294
51
298.5706491
0
ARC
8
0
10
48.568075
20
15.8779855
40
2.8388047
50
283.6115016
51
290.5812912
0
ARC
8
0
10
48.4629292
20
16.3085269
40
3.2819986
50
277.7643511
51
283.6266933
0
ARC
8
0
10
48.3950622
20
16.800319
40
3.7784509
50
272.7790238
51
277.7765458
0
ARC
8
0
10
48.3706213
20
17.2474563
40
4.2262482
50
269.9799465
51
272.8160768
0
ARC
8
0
10
48.3734381
20
8.9220657
40
4.099145
50
85.0979901
51
90.060048
0
ARC
8
0
10
48.4220957
20
9.4823953
40
3.5367071
50
79.4184511
51
85.1076839
0
ARC
8
0
10
48.5122908
20
9.9623357
40
3.0483655
50
72.9085811
51
79.4283666
0
ARC
8
0
10
48.6336257
20
10.3557608
40
2.6366551
50
65.5173499
51
72.9161838
0
ARC
8
0
10
48.7765339
20
10.6681511
40
2.2931292
50
56.7117954
51
65.5323104
0
ARC
8
0
10
48.9301037
20
10.9013715
40
2.0138886
50
46.2663108
51
56.7222929
0
ARC
8
0
10
49.079361
20
11.0567799
40
1.7984139
50
33.2554871
51
46.2794517
0
ARC
8
0
10
49.2085237
20
11.1409237
40
1.6442615
50
15.212388
51
33.2717082
0
ARC
8
0
10
49.2728247
20
11.1604236
40
1.577098
50
0.01574
51
15.141756
0
ARC
8
0
10
49.2582035
20
11.1629983
40
1.5917206
50
334.5005652
51
359.9229175
0
ARC
8
0
10
49.1459391
20
11.2155434
40
1.7156703
50
319.6862324
51
334.5307341
0
ARC
8
0
10
49.0040113
20
11.3354835
40
1.90149
50
308.0594757
51
319.6973094
0
ARC
8
0
10
48.8503323
20
11.5309121
40
2.1501049
50
298.5573663
51
308.0734592
0
ARC
8
0
10
48.7013317
20
11.8034897
40
2.4607485
50
290.5724294
51
298.5706491
0
ARC
8
0
10
48.568075
20
12.1572825
40
2.8388047
50
283.6115016
51
290.5812912
0
ARC
8
0
10
48.4629292
20
12.5878239
40
3.2819986
50
277.7643511
51
283.6266933
0
ARC
8
0
10
48.3950622
20
13.079616
40
3.7784509
50
272.7790238
51
277.7765458
0
ARC
8
0
10
48.3706213
20
13.5267533
40
4.2262482
50
269.9799465
51
272.8160768
0
ARC
8
0
10
48.3734381
20
5.2013627
40
4.099145
50
85.0979901
51
90.060048
0
ARC
8
0
10
48.4220957
20
5.7616924
40
3.536707
50
79.4184511
51
85.1076839
0
ARC
8
0
10
48.5122909
20
6.2416329
40
3.0483652
50
72.9085811
51
79.4283666
0
ARC
8
0
10
48.6336259
20
6.6350584
40
2.6366546
50
65.51735
51
72.9161838
0
ARC
8
0
10
48.7765341
20
6.947449
40
2.2931286
50
56.7117956
51
65.5323106
0
ARC
8
0
10
48.9301042
20
7.1806697
40
2.0138877
50
46.2663111
51
56.7222931
0
ARC
8
0
10
49.0793702
20
7.3360847
40
1.7984024
50
33.255469
51
46.2795086
0
ARC
8
0
10
49.2085299
20
7.4202239
40
1.6442552
50
15.2123901
51
33.2717639
0
ARC
8
0
10
49.2728279
20
7.4397226
40
1.5770948
50
0.0157402
51
15.1417705
0
ARC
8
0
10
49.2582068
20
7.4422973
40
1.5917173
50
334.5005369
51
359.9229167
0
ARC
8
0
10
49.1459416
20
7.4948427
40
1.7156679
50
319.6861995
51
334.5307107
0
ARC
8
0
10
49.0040136
20
7.6147834
40
1.9014881
50
308.0594302
51
319.6972693
0
ARC
8
0
10
48.850347
20
7.8101922
40
2.1500799
50
298.5572847
51
308.0734855
0
ARC
8
0
10
48.7013319
20
8.08279
40
2.4607481
50
290.5724293
51
298.570649
0
ARC
8
0
10
48.5680778
20
8.436585
40
2.8388053
50
283.6114395
51
290.5812266
0
ARC
8
0
10
48.4629293
20
8.8671247
40
3.2819985
50
277.7643511
51
283.6266933
0
ARC
8
0
10
48.3950622
20
9.358917
40
3.7784509
50
272.7790238
51
277.7765458
0
ARC
8
0
10
48.3706213
20
9.8060543
40
4.2262482
50
269.9799465
51
272.8160768
0
LINE
8
DEFAULT_255_2_778
10
48.3691421
20
5.5798064
11
48.3691421
21
-0.0012481
0
LINE
8
DEFAULT_4_2_778
10
19.8437494
20
0.6201039
11
24.8046868
21
0.6201039
0
LINE
8
DEFAULT_4_2_778
10
22.3242314
20
0.6201039
11
22.3242314
21
-1.8603647
0
LINE
8
DEFAULT_4_2_778
10
45.8886838
20
0.6201039
11
50.8496212
21
0.6201039
0
LINE
8
DEFAULT_4_2_778
10
48.3691525
20
0.6201039
11
48.3691525
21
-1.8603647
0
LINE
8
DEFAULT_4_2_778
10
32.2461061
20
0.6201039
11
37.2070434
21
0.6201039
0
LINE
8
DEFAULT_4_2_778
10
34.7265748
20
0.6201172
11
34.7265748
21
-1.8603515
0
LINE
8
DEFAULT_4_2_778
10
60.7714959
20
19.2236323
11
60.7714959
21
14.2626949
0
LINE
8
DEFAULT_4_2_778
10
60.7714827
20
16.7431504
11
63.2519514
21
16.7431504
0
LINE
8
DEFAULT_4_2_778
10
45.8886706
20
71.3134613
11
50.849608
21
71.3134613
0
LINE
8
DEFAULT_4_2_778
10
48.3691525
20
73.79393
11
48.3691525
21
71.3134613
0
LINE
8
DEFAULT_4_2_778
10
19.8437627
20
71.3134613
11
24.8047
21
71.3134613
0
LINE
8
DEFAULT_4_2_778
10
22.3242314
20
73.79393
11
22.3242314
21
71.3134613
0
LINE
8
DEFAULT_4_2_778
10
33.4863404
20
71.3134613
11
38.4472778
21
71.3134613
0
LINE
8
DEFAULT_4_2_778
10
35.9667959
20
73.79393
11
35.9667959
21
71.3134613
0
ENDSEC
0
EOF