0
SECTION
2
HEADER
0
ENDSEC
0
SECTION
2
TABLES
0
TABLE
2
LTYPE
0
LTYPE
72
65
70
64
2
CONTINUOUS
3
______
73
0
40
0
0
ENDTAB
0
TABLE
2
LAYER
0
LAYER
2
DEFAULT_255_2_778
70
0
62
255
6
CONTINUOUS
0
LAYER
2
DEFAULT_4_2_778
70
0
62
4
6
CONTINUOUS
0
ENDTAB
0
ENDSEC
0
SECTION
2
ENTITIES
0
ARC
8
0
10
17.3759855
20
54.0539273
40
4.2370925
50
83.4554285
51
90.1717986
0
ARC
8
0
10
17.5113293
20
55.2055192
40
3.0775808
50
74.4252238
51
83.5151516
0
ARC
8
0
10
17.7399253
20
56.0105514
40
2.2407354
50
60.8824421
51
74.5288934
0
ARC
8
0
10
17.9415645
20
56.3848363
40
1.8156428
50
22.0203096
51
60.6940018
0
ARC
8
0
10
17.2705956
20
56.0842467
40
2.5505106
50
11.4262811
51
22.6289274
0
ARC
8
0
10
16.3445911
20
55.8916734
40
3.4963163
50
3.7411977
51
11.5132763
0
ARC
8
0
10
15.3392596
20
55.8154299
40
4.5044926
50
359.9377019
51
3.8745431
0
ARC
8
0
10
15.606676
20
55.7978274
40
4.2370925
50
353.4554285
51
0.1717986
0
ARC
8
0
10
16.7582679
20
55.6624835
40
3.0775808
50
344.4252238
51
353.5151516
0
ARC
8
0
10
17.5633001
20
55.4338876
40
2.2407354
50
330.8824421
51
344.5288934
0
ARC
8
0
10
17.937585
20
55.2322483
40
1.8156428
50
292.0203096
51
330.6940018
0
ARC
8
0
10
17.6369954
20
55.9032172
40
2.5505106
50
281.4262811
51
292.6289274
0
ARC
8
0
10
17.4444221
20
56.8292217
40
3.4963163
50
273.7411977
51
281.5132763
0
ARC
8
0
10
17.3681785
20
57.8345533
40
4.5044926
50
269.9377019
51
273.8745431
0
ARC
8
0
10
17.3759855
20
49.09299
40
4.2370925
50
83.4554285
51
90.1717986
0
ARC
8
0
10
17.5113293
20
50.2445818
40
3.0775808
50
74.4252238
51
83.5151516
0
ARC
8
0
10
17.7399253
20
51.049614
40
2.2407354
50
60.8824421
51
74.5288934
0
ARC
8
0
10
17.9415645
20
51.4238989
40
1.8156428
50
22.0203096
51
60.6940018
0
ARC
8
0
10
17.2705956
20
51.1233094
40
2.5505106
50
11.4262811
51
22.6289274
0
ARC
8
0
10
16.3445911
20
50.9307361
40
3.4963163
50
3.7411977
51
11.5132763
0
ARC
8
0
10
15.3392596
20
50.8544925
40
4.5044926
50
359.9377019
51
3.8745431
0
ARC
8
0
10
15.606676
20
50.83689
40
4.2370925
50
353.4554285
51
0.1717986
0
ARC
8
0
10
16.7582679
20
50.7015462
40
3.0775808
50
344.4252238
51
353.5151516
0
ARC
8
0
10
17.5633001
20
50.4729502
40
2.2407354
50
330.8824421
51
344.5288934
0
ARC
8
0
10
17.937585
20
50.271311
40
1.8156428
50
292.0203096
51
330.6940018
0
ARC
8
0
10
17.6369954
20
50.9422799
40
2.5505106
50
281.4262811
51
292.6289274
0
ARC
8
0
10
17.4444221
20
51.8682844
40
3.4963163
50
273.7411977
51
281.5132763
0
ARC
8
0
10
17.3681785
20
52.8736159
40
4.5044926
50
269.9377019
51
273.8745431
0
ARC
8
0
10
17.3759855
20
44.1320526
40
4.2370925
50
83.4554285
51
90.1717986
0
ARC
8
0
10
17.5113293
20
45.2836445
40
3.0775808
50
74.4252238
51
83.5151516
0
ARC
8
0
10
17.7399253
20
46.0886767
40
2.2407354
50
60.8824421
51
74.5288934
0
ARC
8
0
10
17.9415645
20
46.4629616
40
1.8156428
50
22.0203096
51
60.6940018
0
ARC
8
0
10
17.2705956
20
46.162372
40
2.5505106
50
11.4262811
51
22.6289274
0
ARC
8
0
10
16.3445911
20
45.9697987
40
3.4963163
50
3.7411977
51
11.5132763
0
ARC
8
0
10
15.3392596
20
45.8935551
40
4.5044926
50
359.9377019
51
3.8745431
0
ARC
8
0
10
15.606676
20
45.8759527
40
4.2370925
50
353.4554285
51
0.1717986
0
ARC
8
0
10
16.7582679
20
45.7406088
40
3.0775808
50
344.4252238
51
353.5151516
0
ARC
8
0
10
17.5633001
20
45.5120129
40
2.2407354
50
330.8824421
51
344.5288934
0
ARC
8
0
10
17.937585
20
45.3103736
40
1.8156428
50
292.0203096
51
330.6940018
0
ARC
8
0
10
17.6369954
20
45.9813425
40
2.5505106
50
281.4262811
51
292.6289274
0
ARC
8
0
10
17.4444221
20
46.907347
40
3.4963163
50
273.7411977
51
281.5132763
0
ARC
8
0
10
17.3681785
20
47.9126786
40
4.5044926
50
269.9377019
51
273.8745431
0
LINE
8
DEFAULT_255_2_778
10
17.3632808
20
65.7324068
11
17.3632808
21
58.2910008
0
LINE
8
DEFAULT_255_2_778
10
17.3632808
20
43.4081887
11
17.3632808
21
37.207017
0
ARC
8
0
10
39.7002036
20
54.0539273
40
4.2370925
50
83.4554285
51
90.1717986
0
ARC
8
0
10
39.8355475
20
55.2055192
40
3.0775808
50
74.4252238
51
83.5151516
0
ARC
8
0
10
40.0641434
20
56.0105514
40
2.2407354
50
60.8824421
51
74.5288934
0
ARC
8
0
10
40.2657827
20
56.3848363
40
1.8156428
50
22.0203096
51
60.6940018
0
ARC
8
0
10
39.5948138
20
56.0842467
40
2.5505106
50
11.4262811
51
22.6289274
0
ARC
8
0
10
38.6688093
20
55.8916734
40
3.4963163
50
3.7411977
51
11.5132763
0
ARC
8
0
10
37.6634777
20
55.8154299
40
4.5044926
50
359.9377019
51
3.8745431
0
ARC
8
0
10
37.9308941
20
55.7978274
40
4.2370925
50
353.4554285
51
0.1717986
0
ARC
8
0
10
39.082486
20
55.6624835
40
3.0775808
50
344.4252238
51
353.5151516
0
ARC
8
0
10
39.8875182
20
55.4338876
40
2.2407354
50
330.8824421
51
344.5288934
0
ARC
8
0
10
40.2618031
20
55.2322483
40
1.8156428
50
292.0203096
51
330.6940018
0
ARC
8
0
10
39.9612135
20
55.9032172
40
2.5505106
50
281.4262811
51
292.6289274
0
ARC
8
0
10
39.7686402
20
56.8292217
40
3.4963163
50
273.7411977
51
281.5132763
0
ARC
8
0
10
39.6923967
20
57.8345533
40
4.5044926
50
269.9377019
51
273.8745431
0
ARC
8
0
10
39.7002036
20
49.09299
40
4.2370925
50
83.4554285
51
90.1717986
0
ARC
8
0
10
39.8355475
20
50.2445818
40
3.0775808
50
74.4252238
51
83.5151516
0
ARC
8
0
10
40.0641434
20
51.049614
40
2.2407354
50
60.8824421
51
74.5288934
0
ARC
8
0
10
40.2657827
20
51.4238989
40
1.8156428
50
22.0203096
51
60.6940018
0
ARC
8
0
10
39.5948138
20
51.1233094
40
2.5505106
50
11.4262811
51
22.6289274
0
ARC
8
0
10
38.6688093
20
50.9307361
40
3.4963163
50
3.7411977
51
11.5132763
0
ARC
8
0
10
37.6634777
20
50.8544925
40
4.5044926
50
359.9377019
51
3.8745431
0
ARC
8
0
10
37.9308941
20
50.83689
40
4.2370925
50
353.4554285
51
0.1717986
0
ARC
8
0
10
39.082486
20
50.7015462
40
3.0775808
50
344.4252238
51
353.5151516
0
ARC
8
0
10
39.8875182
20
50.4729502
40
2.2407354
50
330.8824421
51
344.5288934
0
ARC
8
0
10
40.2618031
20
50.271311
40
1.8156428
50
292.0203096
51
330.6940018
0
ARC
8
0
10
39.9612135
20
50.9422799
40
2.5505106
50
281.4262811
51
292.6289274
0
ARC
8
0
10
39.7686402
20
51.8682844
40
3.4963163
50
273.7411977
51
281.5132763
0
ARC
8
0
10
39.6923967
20
52.8736159
40
4.5044926
50
269.9377019
51
273.8745431
0
ARC
8
0
10
39.7002036
20
44.1320526
40
4.2370925
50
83.4554285
51
90.1717986
0
ARC
8
0
10
39.8355475
20
45.2836445
40
3.0775808
50
74.4252238
51
83.5151516
0
ARC
8
0
10
40.0641434
20
46.0886767
40
2.2407354
50
60.8824421
51
74.5288934
0
ARC
8
0
10
40.2657827
20
46.4629616
40
1.8156428
50
22.0203096
51
60.6940018
0
ARC
8
0
10
39.5948138
20
46.162372
40
2.5505106
50
11.4262811
51
22.6289274
0
ARC
8
0
10
38.6688093
20
45.9697987
40
3.4963163
50
3.7411977
51
11.5132763
0
ARC
8
0
10
37.6634777
20
45.8935551
40
4.5044926
50
359.9377019
51
3.8745431
0
ARC
8
0
10
37.9308941
20
45.8759527
40
4.2370925
50
353.4554285
51
0.1717986
0
ARC
8
0
10
39.082486
20
45.7406088
40
3.0775808
50
344.4252238
51
353.5151516
0
ARC
8
0
10
39.8875182
20
45.5120129
40
2.2407354
50
330.8824421
51
344.5288934
0
ARC
8
0
10
40.2618031
20
45.3103736
40
1.8156428
50
292.0203096
51
330.6940018
0
ARC
8
0
10
39.9612135
20
45.9813425
40
2.5505106
50
281.4262811
51
292.6289274
0
ARC
8
0
10
39.7686402
20
46.907347
40
3.4963163
50
273.7411977
51
281.5132763
0
ARC
8
0
10
39.6923967
20
47.9126786
40
4.5044926
50
269.9377019
51
273.8745431
0
LINE
8
DEFAULT_255_2_778
10
39.6874989
20
65.7324068
11
39.6874989
21
58.2910008
0
LINE
8
DEFAULT_255_2_778
10
39.6874989
20
43.4081887
11
39.6874989
21
37.207017
0
ARC
8
0
10
62.0244217
20
54.0539273
40
4.2370925
50
83.4554285
51
90.1717986
0
ARC
8
0
10
62.1597656
20
55.2055192
40
3.0775808
50
74.4252238
51
83.5151516
0
ARC
8
0
10
62.3883615
20
56.0105514
40
2.2407354
50
60.8824421
51
74.5288934
0
ARC
8
0
10
62.5900008
20
56.3848363
40
1.8156428
50
22.0203096
51
60.6940018
0
ARC
8
0
10
61.9190319
20
56.0842467
40
2.5505106
50
11.4262811
51
22.6289274
0
ARC
8
0
10
60.9930274
20
55.8916734
40
3.4963163
50
3.7411977
51
11.5132763
0
ARC
8
0
10
59.9876958
20
55.8154299
40
4.5044926
50
359.9377019
51
3.8745431
0
ARC
8
0
10
60.2551123
20
55.7978274
40
4.2370925
50
353.4554285
51
0.1717986
0
ARC
8
0
10
61.4067041
20
55.6624835
40
3.0775808
50
344.4252238
51
353.5151516
0
ARC
8
0
10
62.2117363
20
55.4338876
40
2.2407354
50
330.8824421
51
344.5288934
0
ARC
8
0
10
62.5860212
20
55.2322483
40
1.8156428
50
292.0203096
51
330.6940018
0
ARC
8
0
10
62.2854317
20
55.9032172
40
2.5505106
50
281.4262811
51
292.6289274
0
ARC
8
0
10
62.0928584
20
56.8292217
40
3.4963163
50
273.7411977
51
281.5132763
0
ARC
8
0
10
62.0166148
20
57.8345533
40
4.5044926
50
269.9377019
51
273.8745431
0
ARC
8
0
10
62.0244217
20
49.09299
40
4.2370925
50
83.4554285
51
90.1717986
0
ARC
8
0
10
62.1597656
20
50.2445818
40
3.0775808
50
74.4252238
51
83.5151516
0
ARC
8
0
10
62.3883615
20
51.049614
40
2.2407354
50
60.8824421
51
74.5288934
0
ARC
8
0
10
62.5900008
20
51.4238989
40
1.8156428
50
22.0203096
51
60.6940018
0
ARC
8
0
10
61.9190319
20
51.1233094
40
2.5505106
50
11.4262811
51
22.6289274
0
ARC
8
0
10
60.9930274
20
50.9307361
40
3.4963163
50
3.7411977
51
11.5132763
0
ARC
8
0
10
59.9876958
20
50.8544925
40
4.5044926
50
359.9377019
51
3.8745431
0
ARC
8
0
10
60.2551123
20
50.83689
40
4.2370925
50
353.4554285
51
0.1717986
0
ARC
8
0
10
61.4067041
20
50.7015462
40
3.0775808
50
344.4252238
51
353.5151516
0
ARC
8
0
10
62.2117363
20
50.4729502
40
2.2407354
50
330.8824421
51
344.5288934
0
ARC
8
0
10
62.5860212
20
50.271311
40
1.8156428
50
292.0203096
51
330.6940018
0
ARC
8
0
10
62.2854317
20
50.9422799
40
2.5505106
50
281.4262811
51
292.6289274
0
ARC
8
0
10
62.0928584
20
51.8682844
40
3.4963163
50
273.7411977
51
281.5132763
0
ARC
8
0
10
62.0166148
20
52.8736159
40
4.5044926
50
269.9377019
51
273.8745431
0
ARC
8
0
10
62.0244217
20
44.1320526
40
4.2370925
50
83.4554285
51
90.1717986
0
ARC
8
0
10
62.1597656
20
45.2836445
40
3.0775808
50
74.4252238
51
83.5151516
0
ARC
8
0
10
62.3883615
20
46.0886767
40
2.2407354
50
60.8824421
51
74.5288934
0
ARC
8
0
10
62.5900008
20
46.4629616
40
1.8156428
50
22.0203096
51
60.6940018
0
ARC
8
0
10
61.9190319
20
46.162372
40
2.5505106
50
11.4262811
51
22.6289274
0
ARC
8
0
10
60.9930274
20
45.9697987
40
3.4963163
50
3.7411977
51
11.5132763
0
ARC
8
0
10
59.9876958
20
45.8935551
40
4.5044926
50
359.9377019
51
3.8745431
0
ARC
8
0
10
60.2551123
20
45.8759527
40
4.2370925
50
353.4554285
51
0.1717986
0
ARC
8
0
10
61.4067041
20
45.7406088
40
3.0775808
50
344.4252238
51
353.5151516
0
ARC
8
0
10
62.2117363
20
45.5120129
40
2.2407354
50
330.8824421
51
344.5288934
0
ARC
8
0
10
62.5860212
20
45.3103736
40
1.8156428
50
292.0203096
51
330.6940018
0
ARC
8
0
10
62.2854317
20
45.9813425
40
2.5505106
50
281.4262811
51
292.6289274
0
ARC
8
0
10
62.0928584
20
46.907347
40
3.4963163
50
273.7411977
51
281.5132763
0
ARC
8
0
10
62.0166148
20
47.9126786
40
4.5044926
50
269.9377019
51
273.8745431
0
LINE
8
DEFAULT_255_2_778
10
62.011717
20
65.7324068
11
62.011717
21
58.2910008
0
LINE
8
DEFAULT_255_2_778
10
62.011717
20
43.4081887
11
62.011717
21
37.207017
0
LINE
8
DEFAULT_4_2_778
10
59.5312483
20
65.73242
11
64.4921857
21
65.73242
0
LINE
8
DEFAULT_4_2_778
10
62.011717
20
68.2128887
11
62.011717
21
65.73242
0
LINE
8
DEFAULT_4_2_778
10
14.8828121
20
65.73242
11
19.8437494
21
65.73242
0
LINE
8
DEFAULT_4_2_778
10
17.3632808
20
68.2128887
11
17.3632808
21
65.73242
0
LINE
8
DEFAULT_4_2_778
10
37.2070302
20
65.73242
11
42.1679676
21
65.73242
0
LINE
8
DEFAULT_4_2_778
10
39.6874989
20
68.2128887
11
39.6874989
21
65.73242
0
LINE
8
DEFAULT_255_2_778
10
17.3632808
20
37.2070302
11
62.011717
21
37.2070302
0
ARC
8
0
10
17.3759855
20
10.4382319
40
4.2370925
50
269.8282014
51
276.5445715
0
ARC
8
0
10
17.5113293
20
9.28664
40
3.0775808
50
276.4848484
51
285.5747762
0
ARC
8
0
10
17.7399253
20
8.4816079
40
2.2407354
50
285.4711066
51
299.1175579
0
ARC
8
0
10
17.9415645
20
8.1073229
40
1.8156428
50
299.3059982
51
337.9796904
0
ARC
8
0
10
17.2705956
20
8.4079125
40
2.5505106
50
337.3710726
51
348.5737189
0
ARC
8
0
10
16.3445911
20
8.6004858
40
3.4963163
50
348.4867237
51
356.2588023
0
ARC
8
0
10
15.3392596
20
8.6767294
40
4.5044926
50
356.1254569
51
0.0622981
0
ARC
8
0
10
15.606676
20
8.6943319
40
4.2370925
50
359.8282014
51
6.5445715
0
ARC
8
0
10
16.7582679
20
8.8296757
40
3.0775808
50
6.4848484
51
15.5747762
0
ARC
8
0
10
17.5633001
20
9.0582716
40
2.2407354
50
15.4711066
51
29.1175579
0
ARC
8
0
10
17.937585
20
9.2599109
40
1.8156428
50
29.3059982
51
67.9796904
0
ARC
8
0
10
17.6369954
20
8.588942
40
2.5505106
50
67.3710726
51
78.5737189
0
ARC
8
0
10
17.4444221
20
7.6629375
40
3.4963163
50
78.4867237
51
86.2588023
0
ARC
8
0
10
17.3681785
20
6.6576059
40
4.5044926
50
86.1254569
51
90.0622981
0
ARC
8
0
10
17.3759855
20
15.3991693
40
4.2370925
50
269.8282014
51
276.5445715
0
ARC
8
0
10
17.5113293
20
14.2475774
40
3.0775808
50
276.4848484
51
285.5747762
0
ARC
8
0
10
17.7399253
20
13.4425452
40
2.2407354
50
285.4711066
51
299.1175579
0
ARC
8
0
10
17.9415645
20
13.0682603
40
1.8156428
50
299.3059982
51
337.9796904
0
ARC
8
0
10
17.2705956
20
13.3688499
40
2.5505106
50
337.3710726
51
348.5737189
0
ARC
8
0
10
16.3445911
20
13.5614232
40
3.4963163
50
348.4867237
51
356.2588023
0
ARC
8
0
10
15.3392596
20
13.6376668
40
4.5044926
50
356.1254569
51
0.0622981
0
ARC
8
0
10
15.606676
20
13.6552692
40
4.2370925
50
359.8282014
51
6.5445715
0
ARC
8
0
10
16.7582679
20
13.7906131
40
3.0775808
50
6.4848484
51
15.5747762
0
ARC
8
0
10
17.5633001
20
14.019209
40
2.2407354
50
15.4711066
51
29.1175579
0
ARC
8
0
10
17.937585
20
14.2208483
40
1.8156428
50
29.3059982
51
67.9796904
0
ARC
8
0
10
17.6369954
20
13.5498794
40
2.5505106
50
67.3710726
51
78.5737189
0
ARC
8
0
10
17.4444221
20
12.6238749
40
3.4963163
50
78.4867237
51
86.2588023
0
ARC
8
0
10
17.3681785
20
11.6185433
40
4.5044926
50
86.1254569
51
90.0622981
0
ARC
8
0
10
17.3759855
20
20.3601066
40
4.2370925
50
269.8282014
51
276.5445715
0
ARC
8
0
10
17.5113293
20
19.2085148
40
3.0775808
50
276.4848484
51
285.5747762
0
ARC
8
0
10
17.7399253
20
18.4034826
40
2.2407354
50
285.4711066
51
299.1175579
0
ARC
8
0
10
17.9415645
20
18.0291977
40
1.8156428
50
299.3059982
51
337.9796904
0
ARC
8
0
10
17.2705956
20
18.3297872
40
2.5505106
50
337.3710726
51
348.5737189
0
ARC
8
0
10
16.3445911
20
18.5223605
40
3.4963163
50
348.4867237
51
356.2588023
0
ARC
8
0
10
15.3392596
20
18.5986041
40
4.5044926
50
356.1254569
51
0.0622981
0
ARC
8
0
10
15.606676
20
18.6162066
40
4.2370925
50
359.8282014
51
6.5445715
0
ARC
8
0
10
16.7582679
20
18.7515505
40
3.0775808
50
6.4848484
51
15.5747762
0
ARC
8
0
10
17.5633001
20
18.9801464
40
2.2407354
50
15.4711066
51
29.1175579
0
ARC
8
0
10
17.937585
20
19.1817856
40
1.8156428
50
29.3059982
51
67.9796904
0
ARC
8
0
10
17.6369954
20
18.5108167
40
2.5505106
50
67.3710726
51
78.5737189
0
ARC
8
0
10
17.4444221
20
17.5848122
40
3.4963163
50
78.4867237
51
86.2588023
0
ARC
8
0
10
17.3681785
20
16.5794807
40
4.5044926
50
86.1254569
51
90.0622981
0
LINE
8
DEFAULT_255_2_778
10
17.3632808
20
-1.2402476
11
17.3632808
21
6.2011585
0
LINE
8
DEFAULT_255_2_778
10
17.3632808
20
21.0839706
11
17.3632808
21
27.2851423
0
ARC
8
0
10
39.7002036
20
10.4382319
40
4.2370925
50
269.8282014
51
276.5445715
0
ARC
8
0
10
39.8355475
20
9.28664
40
3.0775808
50
276.4848484
51
285.5747762
0
ARC
8
0
10
40.0641434
20
8.4816079
40
2.2407354
50
285.4711066
51
299.1175579
0
ARC
8
0
10
40.2657827
20
8.1073229
40
1.8156428
50
299.3059982
51
337.9796904
0
ARC
8
0
10
39.5948138
20
8.4079125
40
2.5505106
50
337.3710726
51
348.5737189
0
ARC
8
0
10
38.6688093
20
8.6004858
40
3.4963163
50
348.4867237
51
356.2588023
0
ARC
8
0
10
37.6634777
20
8.6767294
40
4.5044926
50
356.1254569
51
0.0622981
0
ARC
8
0
10
37.9308941
20
8.6943319
40
4.2370925
50
359.8282014
51
6.5445715
0
ARC
8
0
10
39.082486
20
8.8296757
40
3.0775808
50
6.4848484
51
15.5747762
0
ARC
8
0
10
39.8875182
20
9.0582716
40
2.2407354
50
15.4711066
51
29.1175579
0
ARC
8
0
10
40.2618031
20
9.2599109
40
1.8156428
50
29.3059982
51
67.9796904
0
ARC
8
0
10
39.9612135
20
8.588942
40
2.5505106
50
67.3710726
51
78.5737189
0
ARC
8
0
10
39.7686402
20
7.6629375
40
3.4963163
50
78.4867237
51
86.2588023
0
ARC
8
0
10
39.6923967
20
6.6576059
40
4.5044926
50
86.1254569
51
90.0622981
0
ARC
8
0
10
39.7002036
20
15.3991693
40
4.2370925
50
269.8282014
51
276.5445715
0
ARC
8
0
10
39.8355475
20
14.2475774
40
3.0775808
50
276.4848484
51
285.5747762
0
ARC
8
0
10
40.0641434
20
13.4425452
40
2.2407354
50
285.4711066
51
299.1175579
0
ARC
8
0
10
40.2657827
20
13.0682603
40
1.8156428
50
299.3059982
51
337.9796904
0
ARC
8
0
10
39.5948138
20
13.3688499
40
2.5505106
50
337.3710726
51
348.5737189
0
ARC
8
0
10
38.6688093
20
13.5614232
40
3.4963163
50
348.4867237
51
356.2588023
0
ARC
8
0
10
37.6634777
20
13.6376668
40
4.5044926
50
356.1254569
51
0.0622981
0
ARC
8
0
10
37.9308941
20
13.6552692
40
4.2370925
50
359.8282014
51
6.5445715
0
ARC
8
0
10
39.082486
20
13.7906131
40
3.0775808
50
6.4848484
51
15.5747762
0
ARC
8
0
10
39.8875182
20
14.019209
40
2.2407354
50
15.4711066
51
29.1175579
0
ARC
8
0
10
40.2618031
20
14.2208483
40
1.8156428
50
29.3059982
51
67.9796904
0
ARC
8
0
10
39.9612135
20
13.5498794
40
2.5505106
50
67.3710726
51
78.5737189
0
ARC
8
0
10
39.7686402
20
12.6238749
40
3.4963163
50
78.4867237
51
86.2588023
0
ARC
8
0
10
39.6923967
20
11.6185433
40
4.5044926
50
86.1254569
51
90.0622981
0
ARC
8
0
10
39.7002036
20
20.3601066
40
4.2370925
50
269.8282014
51
276.5445715
0
ARC
8
0
10
39.8355475
20
19.2085148
40
3.0775808
50
276.4848484
51
285.5747762
0
ARC
8
0
10
40.0641434
20
18.4034826
40
2.2407354
50
285.4711066
51
299.1175579
0
ARC
8
0
10
40.2657827
20
18.0291977
40
1.8156428
50
299.3059982
51
337.9796904
0
ARC
8
0
10
39.5948138
20
18.3297872
40
2.5505106
50
337.3710726
51
348.5737189
0
ARC
8
0
10
38.6688093
20
18.5223605
40
3.4963163
50
348.4867237
51
356.2588023
0
ARC
8
0
10
37.6634777
20
18.5986041
40
4.5044926
50
356.1254569
51
0.0622981
0
ARC
8
0
10
37.9308941
20
18.6162066
40
4.2370925
50
359.8282014
51
6.5445715
0
ARC
8
0
10
39.082486
20
18.7515505
40
3.0775808
50
6.4848484
51
15.5747762
0
ARC
8
0
10
39.8875182
20
18.9801464
40
2.2407354
50
15.4711066
51
29.1175579
0
ARC
8
0
10
40.2618031
20
19.1817856
40
1.8156428
50
29.3059982
51
67.9796904
0
ARC
8
0
10
39.9612135
20
18.5108167
40
2.5505106
50
67.3710726
51
78.5737189
0
ARC
8
0
10
39.7686402
20
17.5848122
40
3.4963163
50
78.4867237
51
86.2588023
0
ARC
8
0
10
39.6923967
20
16.5794807
40
4.5044926
50
86.1254569
51
90.0622981
0
LINE
8
DEFAULT_255_2_778
10
39.6874989
20
-1.2402476
11
39.6874989
21
6.2011585
0
LINE
8
DEFAULT_255_2_778
10
39.6874989
20
21.0839706
11
39.6874989
21
27.2851423
0
ARC
8
0
10
62.0244217
20
10.4382319
40
4.2370925
50
269.8282014
51
276.5445715
0
ARC
8
0
10
62.1597656
20
9.28664
40
3.0775808
50
276.4848484
51
285.5747762
0
ARC
8
0
10
62.3883615
20
8.4816079
40
2.2407354
50
285.4711066
51
299.1175579
0
ARC
8
0
10
62.5900008
20
8.1073229
40
1.8156428
50
299.3059982
51
337.9796904
0
ARC
8
0
10
61.9190319
20
8.4079125
40
2.5505106
50
337.3710726
51
348.5737189
0
ARC
8
0
10
60.9930274
20
8.6004858
40
3.4963163
50
348.4867237
51
356.2588023
0
ARC
8
0
10
59.9876958
20
8.6767294
40
4.5044926
50
356.1254569
51
0.0622981
0
ARC
8
0
10
60.2551123
20
8.6943319
40
4.2370925
50
359.8282014
51
6.5445715
0
ARC
8
0
10
61.4067041
20
8.8296757
40
3.0775808
50
6.4848484
51
15.5747762
0
ARC
8
0
10
62.2117363
20
9.0582716
40
2.2407354
50
15.4711066
51
29.1175579
0
ARC
8
0
10
62.5860212
20
9.2599109
40
1.8156428
50
29.3059982
51
67.9796904
0
ARC
8
0
10
62.2854317
20
8.588942
40
2.5505106
50
67.3710726
51
78.5737189
0
ARC
8
0
10
62.0928584
20
7.6629375
40
3.4963163
50
78.4867237
51
86.2588023
0
ARC
8
0
10
62.0166148
20
6.6576059
40
4.5044926
50
86.1254569
51
90.0622981
0
ARC
8
0
10
62.0244217
20
15.3991693
40
4.2370925
50
269.8282014
51
276.5445715
0
ARC
8
0
10
62.1597656
20
14.2475774
40
3.0775808
50
276.4848484
51
285.5747762
0
ARC
8
0
10
62.3883615
20
13.4425452
40
2.2407354
50
285.4711066
51
299.1175579
0
ARC
8
0
10
62.5900008
20
13.0682603
40
1.8156428
50
299.3059982
51
337.9796904
0
ARC
8
0
10
61.9190319
20
13.3688499
40
2.5505106
50
337.3710726
51
348.5737189
0
ARC
8
0
10
60.9930274
20
13.5614232
40
3.4963163
50
348.4867237
51
356.2588023
0
ARC
8
0
10
59.9876958
20
13.6376668
40
4.5044926
50
356.1254569
51
0.0622981
0
ARC
8
0
10
60.2551123
20
13.6552692
40
4.2370925
50
359.8282014
51
6.5445715
0
ARC
8
0
10
61.4067041
20
13.7906131
40
3.0775808
50
6.4848484
51
15.5747762
0
ARC
8
0
10
62.2117363
20
14.019209
40
2.2407354
50
15.4711066
51
29.1175579
0
ARC
8
0
10
62.5860212
20
14.2208483
40
1.8156428
50
29.3059982
51
67.9796904
0
ARC
8
0
10
62.2854317
20
13.5498794
40
2.5505106
50
67.3710726
51
78.5737189
0
ARC
8
0
10
62.0928584
20
12.6238749
40
3.4963163
50
78.4867237
51
86.2588023
0
ARC
8
0
10
62.0166148
20
11.6185433
40
4.5044926
50
86.1254569
51
90.0622981
0
ARC
8
0
10
62.0244217
20
20.3601066
40
4.2370925
50
269.8282014
51
276.5445715
0
ARC
8
0
10
62.1597656
20
19.2085148
40
3.0775808
50
276.4848484
51
285.5747762
0
ARC
8
0
10
62.3883615
20
18.4034826
40
2.2407354
50
285.4711066
51
299.1175579
0
ARC
8
0
10
62.5900008
20
18.0291977
40
1.8156428
50
299.3059982
51
337.9796904
0
ARC
8
0
10
61.9190319
20
18.3297872
40
2.5505106
50
337.3710726
51
348.5737189
0
ARC
8
0
10
60.9930274
20
18.5223605
40
3.4963163
50
348.4867237
51
356.2588023
0
ARC
8
0
10
59.9876958
20
18.5986041
40
4.5044926
50
356.1254569
51
0.0622981
0
ARC
8
0
10
60.2551123
20
18.6162066
40
4.2370925
50
359.8282014
51
6.5445715
0
ARC
8
0
10
61.4067041
20
18.7515505
40
3.0775808
50
6.4848484
51
15.5747762
0
ARC
8
0
10
62.2117363
20
18.9801464
40
2.2407354
50
15.4711066
51
29.1175579
0
ARC
8
0
10
62.5860212
20
19.1817856
40
1.8156428
50
29.3059982
51
67.9796904
0
ARC
8
0
10
62.2854317
20
18.5108167
40
2.5505106
50
67.3710726
51
78.5737189
0
ARC
8
0
10
62.0928584
20
17.5848122
40
3.4963163
50
78.4867237
51
86.2588023
0
ARC
8
0
10
62.0166148
20
16.5794807
40
4.5044926
50
86.1254569
51
90.0622981
0
LINE
8
DEFAULT_255_2_778
10
62.011717
20
-1.2402476
11
62.011717
21
6.2011585
0
LINE
8
DEFAULT_255_2_778
10
62.011717
20
21.0839706
11
62.011717
21
27.2851423
0
LINE
8
DEFAULT_4_2_778
10
59.5312483
20
-1.2402343
11
64.4921857
21
-1.2402343
0
LINE
8
DEFAULT_4_2_778
10
62.011717
20
-3.720703
11
62.011717
21
-1.2402343
0
LINE
8
DEFAULT_4_2_778
10
14.8828121
20
-1.2402343
11
19.8437494
21
-1.2402343
0
LINE
8
DEFAULT_4_2_778
10
17.3632808
20
-3.720703
11
17.3632808
21
-1.2402343
0
LINE
8
DEFAULT_4_2_778
10
37.2070302
20
-1.2402343
11
42.1679676
21
-1.2402343
0
LINE
8
DEFAULT_4_2_778
10
39.6874989
20
-3.720703
11
39.6874989
21
-1.2402343
0
LINE
8
DEFAULT_255_2_778
10
17.3632808
20
27.2851555
11
62.011717
21
27.2851555
0
ENDSEC
0
EOF