0
SECTION
2
HEADER
0
ENDSEC
0
SECTION
2
TABLES
0
TABLE
2
LTYPE
0
LTYPE
72
65
70
64
2
CONTINUOUS
3
______
73
0
40
0
0
ENDTAB
0
TABLE
2
LAYER
0
LAYER
2
DEFAULT_255_2_778
70
0
62
255
6
CONTINUOUS
0
LAYER
2
DEFAULT_4_2_778
70
0
62
4
6
CONTINUOUS
0
ENDTAB
0
ENDSEC
0
SECTION
2
ENTITIES
0
LINE
8
DEFAULT_255_2_778
10
19.8437494
20
29.1454938
11
12.4023434
21
29.1454938
0
ARC
8
0
10
34.6154733
20
-3.0962728
40
5.8420382
50
175.7533796
51
180.0423006
0
ARC
8
0
10
33.9625824
20
-3.0473001
40
5.1873133
50
170.9355335
51
175.7588119
0
ARC
8
0
10
33.393076
20
-2.9560447
40
4.6105422
50
165.5388463
51
170.940412
0
ARC
8
0
10
32.9110728
20
-2.8313743
40
4.1126772
50
159.4623027
51
165.5437639
0
ARC
8
0
10
32.515513
20
-2.6828055
40
3.6901373
50
152.5225738
51
159.4678039
0
ARC
8
0
10
32.2062607
20
-2.521695
40
3.3414347
50
144.5424194
51
152.5268138
0
ARC
8
0
10
31.9834673
20
-2.3629347
40
3.0678626
50
135.3046932
51
144.5438189
0
ARC
8
0
10
31.8406137
20
-2.2214692
40
2.8668163
50
123.9767644
51
135.3064447
0
ARC
8
0
10
31.7686856
20
-2.1150253
40
2.7383485
50
109.0744067
51
123.973405
0
ARC
8
0
10
31.750435
20
-2.0647927
40
2.6849099
50
90.0093012
51
109.0566359
0
ARC
8
0
10
31.7491535
20
-2.068286
40
2.6884033
50
66.7545804
51
89.9819785
0
ARC
8
0
10
31.7195597
20
-2.1367244
40
2.7629658
50
53.0277898
51
66.75083
0
ARC
8
0
10
31.6322839
20
-2.2525752
40
2.9080122
50
42.4122897
51
53.0267831
0
ARC
8
0
10
31.472431
20
-2.3986459
40
3.1245523
50
33.5155041
51
42.4128583
0
ARC
8
0
10
31.2330544
20
-2.5574803
40
3.4118318
50
25.9411368
51
33.5197235
0
ARC
8
0
10
30.910603
20
-2.714574
40
3.7705145
50
19.2627957
51
25.9443267
0
ARC
8
0
10
30.5034864
20
-2.8572974
40
4.2019235
50
13.422047
51
19.2685876
0
ARC
8
0
10
30.0086458
20
-2.975632
40
4.7107164
50
8.1289582
51
13.424953
0
ARC
8
0
10
29.4239222
20
-3.0596487
40
5.301445
50
3.4255529
51
8.1342728
0
ARC
8
0
10
28.8201342
20
-3.0977029
40
5.9064282
50
359.9720333
51
3.4440699
0
ARC
8
0
10
41.7319916
20
-3.0962109
40
7.0054314
50
176.4601122
51
180.0357814
0
ARC
8
0
10
40.9474488
20
-3.0477571
40
6.2193939
50
172.7792473
51
176.4593851
0
ARC
8
0
10
40.2518813
20
-2.9590854
40
5.5181974
50
168.6641505
51
172.7848625
0
ARC
8
0
10
39.6240685
20
-2.8328377
40
4.877817
50
164.1411305
51
168.668639
0
ARC
8
0
10
39.0563415
20
-2.6706471
40
4.2873775
50
158.8382134
51
164.1528271
0
ARC
8
0
10
38.5529716
20
-2.4752232
40
3.747404
50
152.8550212
51
158.84628
0
ARC
8
0
10
38.1360292
20
-2.2611666
40
3.2787238
50
146.2738754
51
152.8594244
0
ARC
8
0
10
37.7985309
20
-2.0350789
40
2.8724969
50
138.5909692
51
146.2868475
0
ARC
8
0
10
37.5355841
20
-1.8024623
40
2.5214255
50
129.5927668
51
138.6033095
0
ARC
8
0
10
37.3480748
20
-1.5745433
40
2.226288
50
118.44272
51
129.6124661
0
ARC
8
0
10
37.2366936
20
-1.3669295
40
1.9906861
50
103.1653148
51
118.4699336
0
ARC
8
0
10
37.2077276
20
-1.2544537
40
1.874571
50
90.0213159
51
103.0862417
0
ARC
8
0
10
37.2037397
20
-1.2802121
40
1.9003321
50
68.166319
51
89.9007883
0
ARC
8
0
10
37.1294022
20
-1.4704215
40
2.1045451
50
55.3601438
51
68.2135926
0
ARC
8
0
10
36.975283
20
-1.6950228
40
2.3769381
50
45.276741
51
55.3810381
0
ARC
8
0
10
36.7430055
20
-1.9307849
40
2.7079002
50
36.9785433
51
45.2950523
0
ARC
8
0
10
36.4387665
20
-2.1609582
40
3.089398
50
30.0157755
51
36.994712
0
ARC
8
0
10
36.0566622
20
-2.3820278
40
3.530845
50
23.6861741
51
30.0202897
0
ARC
8
0
10
35.5930993
20
-2.5862325
40
4.0373917
50
18.2045593
51
23.6971983
0
ARC
8
0
10
35.0512268
20
-2.7648294
40
4.6079375
50
13.2061803
51
18.2091717
0
ARC
8
0
10
34.428168
20
-2.9117199
40
5.2480771
50
8.7723748
51
13.2134335
0
ARC
8
0
10
33.7309107
20
-3.0198599
40
5.9536703
50
4.7643536
51
8.7775409
0
ARC
8
0
10
32.9572835
20
-3.0848645
40
6.7300234
50
1.129049
51
4.7688159
0
ARC
8
0
10
32.3952247
20
-3.1000764
40
7.2922741
50
359.9959971
51
1.1615294
0
ARC
8
0
10
46.692929
20
-3.0962109
40
7.0054314
50
176.4601122
51
180.0357814
0
ARC
8
0
10
45.9083862
20
-3.0477571
40
6.2193939
50
172.7792473
51
176.4593851
0
ARC
8
0
10
45.2128186
20
-2.9590854
40
5.5181974
50
168.6641505
51
172.7848625
0
ARC
8
0
10
44.5850059
20
-2.8328377
40
4.877817
50
164.1411305
51
168.668639
0
ARC
8
0
10
44.0172789
20
-2.6706471
40
4.2873775
50
158.8382134
51
164.1528271
0
ARC
8
0
10
43.5139089
20
-2.4752232
40
3.747404
50
152.8550212
51
158.84628
0
ARC
8
0
10
43.0969666
20
-2.2611666
40
3.2787238
50
146.2738754
51
152.8594244
0
ARC
8
0
10
42.7594683
20
-2.0350789
40
2.8724969
50
138.5909692
51
146.2868475
0
ARC
8
0
10
42.4965214
20
-1.8024623
40
2.5214255
50
129.5927668
51
138.6033095
0
ARC
8
0
10
42.3090122
20
-1.5745433
40
2.226288
50
118.44272
51
129.6124661
0
ARC
8
0
10
42.197631
20
-1.3669295
40
1.9906861
50
103.1653148
51
118.4699336
0
ARC
8
0
10
42.168665
20
-1.2544537
40
1.874571
50
90.0213159
51
103.0862417
0
ARC
8
0
10
42.164677
20
-1.2802121
40
1.9003321
50
68.166319
51
89.9007883
0
ARC
8
0
10
42.0903396
20
-1.4704215
40
2.1045451
50
55.3601438
51
68.2135926
0
ARC
8
0
10
41.9362203
20
-1.6950228
40
2.3769381
50
45.276741
51
55.3810381
0
ARC
8
0
10
41.7039429
20
-1.9307849
40
2.7079002
50
36.9785433
51
45.2950523
0
ARC
8
0
10
41.3997038
20
-2.1609582
40
3.089398
50
30.0157755
51
36.994712
0
ARC
8
0
10
41.0175995
20
-2.3820278
40
3.530845
50
23.6861741
51
30.0202897
0
ARC
8
0
10
40.5540366
20
-2.5862325
40
4.0373917
50
18.2045593
51
23.6971983
0
ARC
8
0
10
40.0121642
20
-2.7648294
40
4.6079375
50
13.2061803
51
18.2091717
0
ARC
8
0
10
39.3891054
20
-2.9117199
40
5.2480771
50
8.7723748
51
13.2134335
0
ARC
8
0
10
38.6918481
20
-3.0198599
40
5.9536703
50
4.7643536
51
8.7775409
0
ARC
8
0
10
37.9182209
20
-3.0848645
40
6.7300234
50
1.129049
51
4.7688159
0
ARC
8
0
10
37.3561621
20
-3.1000764
40
7.2922741
50
359.9959971
51
1.1615294
0
ARC
8
0
10
50.4904728
20
-3.0962728
40
5.8420382
50
175.7533796
51
180.0423006
0
ARC
8
0
10
49.8375819
20
-3.0473001
40
5.1873133
50
170.9355335
51
175.7588119
0
ARC
8
0
10
49.2680755
20
-2.9560447
40
4.6105422
50
165.5388463
51
170.940412
0
ARC
8
0
10
48.7860724
20
-2.8313743
40
4.1126772
50
159.4623027
51
165.5437639
0
ARC
8
0
10
48.3905126
20
-2.6828055
40
3.6901373
50
152.5225738
51
159.4678039
0
ARC
8
0
10
48.0812603
20
-2.521695
40
3.3414347
50
144.5424194
51
152.5268138
0
ARC
8
0
10
47.8584668
20
-2.3629347
40
3.0678626
50
135.3046932
51
144.5438189
0
ARC
8
0
10
47.7156133
20
-2.2214692
40
2.8668163
50
123.9767644
51
135.3064447
0
ARC
8
0
10
47.6436851
20
-2.1150253
40
2.7383485
50
109.0744067
51
123.973405
0
ARC
8
0
10
47.6254345
20
-2.0647927
40
2.6849099
50
90.0093012
51
109.0566359
0
ARC
8
0
10
47.6241531
20
-2.068286
40
2.6884033
50
66.7545804
51
89.9819785
0
ARC
8
0
10
47.5945593
20
-2.1367244
40
2.7629658
50
53.0277898
51
66.75083
0
ARC
8
0
10
47.5072835
20
-2.2525752
40
2.9080122
50
42.4122897
51
53.0267831
0
ARC
8
0
10
47.3474306
20
-2.3986459
40
3.1245523
50
33.5155041
51
42.4128583
0
ARC
8
0
10
47.108054
20
-2.5574803
40
3.4118318
50
25.9411368
51
33.5197235
0
ARC
8
0
10
46.7856026
20
-2.714574
40
3.7705145
50
19.2627957
51
25.9443267
0
ARC
8
0
10
46.378486
20
-2.8572974
40
4.2019235
50
13.422047
51
19.2685876
0
ARC
8
0
10
45.8836454
20
-2.975632
40
4.7107164
50
8.1289582
51
13.424953
0
ARC
8
0
10
45.2989217
20
-3.0596487
40
5.301445
50
3.4255529
51
8.1342728
0
ARC
8
0
10
44.6951338
20
-3.0977029
40
5.9064282
50
359.9720333
51
3.4440699
0
LINE
8
DEFAULT_255_2_778
10
12.4023434
20
-3.1005859
11
28.7734367
21
-3.1005859
0
LINE
8
DEFAULT_255_2_778
10
50.6015611
20
-3.1005859
11
66.9726544
21
-3.1005859
0
LINE
8
DEFAULT_255_2_778
10
59.5312483
20
29.145507
11
66.9726544
21
29.145507
0
LINE
8
DEFAULT_255_2_778
10
12.4023434
20
-3.1005859
11
12.4023434
21
67.5927716
0
LINE
8
DEFAULT_255_2_778
10
66.9726544
20
-3.1005859
11
66.9726544
21
67.5927716
0
LINE
8
DEFAULT_255_2_778
10
45.2685534
20
24.1845696
11
34.1064444
21
24.1845696
0
LINE
8
DEFAULT_255_2_778
10
34.1064444
20
20.4638666
11
36.586913
21
20.4638666
0
LINE
8
DEFAULT_255_2_778
10
38.4472646
20
20.4638666
11
40.9277332
21
20.4638666
0
LINE
8
DEFAULT_255_2_778
10
42.7880847
20
20.4638666
11
45.2685534
21
20.4638666
0
ARC
8
0
10
40.0772513
20
27.9096367
40
20.2335024
50
173.7067219
51
180.0123953
0
ARC
8
0
10
39.7271043
20
27.9474505
40
19.8813205
50
166.5228399
51
173.7044268
0
ARC
8
0
10
39.5713311
20
27.9835268
40
19.7214291
50
158.0484311
51
166.5192916
0
ARC
8
0
10
39.588667
20
27.974506
40
19.7408804
50
146.6500565
51
158.0429565
0
ARC
8
0
10
39.6704528
20
27.9213729
40
19.8384085
50
117.9205543
51
146.6517264
0
ARC
8
0
10
39.6061667
20
28.0300867
40
19.7122483
50
108.0024619
51
117.9034107
0
ARC
8
0
10
39.6222095
20
27.9757267
40
19.7689052
50
100.1616639
51
107.9979899
0
ARC
8
0
10
39.664107
20
27.7366529
40
20.0116206
50
93.4905104
51
100.1589767
0
ARC
8
0
10
39.6860294
20
27.4136461
40
20.335363
50
89.9958596
51
93.4967541
0
ARC
8
0
10
39.6918742
20
27.5154631
40
20.2335463
50
83.706734
51
90.0123896
0
ARC
8
0
10
39.7296825
20
27.8656233
40
19.8813517
50
76.5228468
51
83.7044192
0
ARC
8
0
10
39.7657768
20
28.0214711
40
19.7213835
50
68.0484213
51
76.5192992
0
ARC
8
0
10
39.756736
20
28.0040784
40
19.740895
50
56.6500637
51
68.0429544
0
ARC
8
0
10
39.7036067
20
27.9222992
40
19.8384154
50
27.9205672
51
56.6517322
0
ARC
8
0
10
39.8123314
20
27.986591
40
19.7122429
50
18.0024712
51
27.9034239
0
ARC
8
0
10
39.7579605
20
27.970546
40
19.7689109
50
10.1616707
51
17.9979954
0
ARC
8
0
10
39.5189443
20
27.9286566
40
20.0115684
50
3.4905049
51
10.1589896
0
ARC
8
0
10
39.1958754
20
27.9067289
40
20.335373
50
359.9958596
51
3.496753
0
ARC
8
0
10
39.2977686
20
27.9008823
40
20.2334802
50
353.7067185
51
0.0123948
0
ARC
8
0
10
39.6478626
20
27.863079
40
19.8813521
50
346.5228378
51
353.7044101
0
ARC
8
0
10
39.8037092
20
27.8269871
40
19.7213857
50
338.0484065
51
346.5192839
0
ARC
8
0
10
39.7863303
20
27.83602
40
19.7408816
50
326.6500462
51
338.0429461
0
ARC
8
0
10
39.70453
20
27.8891608
40
19.838426
50
297.9205679
51
326.6517206
0
ARC
8
0
10
39.7688242
20
27.7804305
40
19.7122474
50
288.0024769
51
297.9034261
0
ARC
8
0
10
39.7527821
20
27.8347938
40
19.7689072
50
280.1616764
51
287.9979999
0
ARC
8
0
10
39.7108959
20
28.0737928
40
20.0115471
50
273.4905068
51
280.1589949
0
ARC
8
0
10
39.6889683
20
28.396859
40
20.3353492
50
269.99586
51
273.4967551
0
ARC
8
0
10
39.6831216
20
28.295005
40
20.2334955
50
263.7067207
51
270.0123953
0
ARC
8
0
10
39.6453181
20
27.944909
40
19.8813654
50
256.5228421
51
263.7044122
0
ARC
8
0
10
39.6092255
20
27.7890583
40
19.7213948
50
248.0484125
51
256.5192877
0
ARC
8
0
10
39.6182528
20
27.8064214
40
19.7408739
50
236.6500451
51
248.0429499
0
ARC
8
0
10
39.6713951
20
27.8882227
40
19.8384199
50
207.9205589
51
236.6517177
0
ARC
8
0
10
39.5626454
20
27.8239206
40
19.7122204
50
198.0024611
51
207.9034231
0
ARC
8
0
10
39.6170727
20
27.8399848
40
19.7689479
50
190.1616805
51
197.9979876
0
ARC
8
0
10
39.8560905
20
27.8818677
40
20.0116056
50
183.4905117
51
190.1589802
0
ARC
8
0
10
40.1790985
20
27.9037901
40
20.3353492
50
179.99586
51
183.4967551
0
LINE
8
DEFAULT_255_2_778
10
19.8437494
20
27.9052594
11
19.8437494
21
27.9052594
0
LINE
8
DEFAULT_4_2_778
10
64.4921857
20
67.5927583
11
69.4531231
21
67.5927583
0
LINE
8
DEFAULT_4_2_778
10
66.9726544
20
70.073227
11
66.9726544
21
67.5927583
0
LINE
8
DEFAULT_4_2_778
10
9.9218747
20
67.5927583
11
14.8828121
21
67.5927583
0
LINE
8
DEFAULT_4_2_778
10
12.4023434
20
70.073227
11
12.4023434
21
67.5927583
0
ENDSEC
0
EOF