0
SECTION
2
HEADER
0
ENDSEC
0
SECTION
2
TABLES
0
TABLE
2
LTYPE
0
LTYPE
72
65
70
64
2
CONTINUOUS
3
______
73
0
40
0
0
ENDTAB
0
TABLE
2
LAYER
0
LAYER
2
DEFAULT_255_2_778
70
0
62
255
6
CONTINUOUS
0
LAYER
2
DEFAULT_4_2_778
70
0
62
4
6
CONTINUOUS
0
ENDTAB
0
ENDSEC
0
SECTION
2
ENTITIES
0
LINE
8
DEFAULT_255_2_778
10
39.6874989
20
0.6201172
11
39.6874989
21
16.7431636
0
LINE
8
DEFAULT_255_2_778
10
51.4697251
20
21.0839772
11
60.7714827
21
11.1621024
0
LINE
8
DEFAULT_255_2_778
10
60.7714827
20
11.1621024
11
60.7714827
21
0.6201106
0
LINE
8
DEFAULT_255_2_778
10
27.9052727
20
21.0839772
11
18.6035151
21
11.1621024
0
LINE
8
DEFAULT_255_2_778
10
18.6035151
20
11.1621024
11
18.6035151
21
0.6201106
0
LINE
8
DEFAULT_255_2_778
10
39.6874989
20
71.3134613
11
39.6874989
21
53.9501806
0
LINE
8
DEFAULT_255_2_778
10
60.7714827
20
71.313468
11
60.7714827
21
59.5312417
0
LINE
8
DEFAULT_255_2_778
10
60.7714827
20
59.5312417
11
51.4697251
21
49.609367
0
LINE
8
DEFAULT_255_2_778
10
18.6035151
20
71.313468
11
18.6035151
21
59.5312417
0
LINE
8
DEFAULT_255_2_778
10
18.6035151
20
59.5312417
11
27.9052727
21
49.609367
0
ARC
8
0
10
40.0471712
20
35.350983
40
18.9631879
50
173.5273727
51
180.0130449
0
ARC
8
0
10
39.7165568
20
35.387609
40
18.6305523
50
166.193625
51
173.5246754
0
ARC
8
0
10
39.5751554
20
35.4211452
40
18.4852334
50
157.1615008
51
166.1899769
0
ARC
8
0
10
39.6044206
20
35.4065909
40
18.5178534
50
144.8886349
51
157.1551442
0
ARC
8
0
10
39.6714663
20
35.3618544
40
18.5984301
50
118.125934
51
144.8946929
0
ARC
8
0
10
39.6113698
20
35.4633833
40
18.480561
50
107.9183152
51
118.1100042
0
ARC
8
0
10
39.6273411
20
35.4088035
40
18.5374074
50
99.8331019
51
107.9133841
0
ARC
8
0
10
39.6677424
20
35.1706019
40
18.7790094
50
93.0686528
51
99.8304413
0
ARC
8
0
10
39.6864248
20
34.8700739
40
19.0801067
50
89.9967745
51
93.076363
0
ARC
8
0
10
39.6918164
20
34.9869728
40
18.9632083
50
83.5273764
51
90.013045
0
ARC
8
0
10
39.7284428
20
35.3175946
40
18.6305652
50
76.1936297
51
83.5246776
0
ARC
8
0
10
39.7619829
20
35.4590113
40
18.4852305
50
67.1615029
51
76.1899821
0
ARC
8
0
10
39.7474308
20
35.4297499
40
18.5178462
50
54.8886337
51
67.1551481
0
ARC
8
0
10
39.7026954
20
35.3627065
40
18.5984205
50
28.1259205
51
54.8946904
0
ARC
8
0
10
39.8041973
20
35.4227893
40
18.4805818
50
17.9183117
51
28.1099885
0
ARC
8
0
10
39.7496375
20
35.4068261
40
18.5374065
50
9.8330933
51
17.9133757
0
ARC
8
0
10
39.5114919
20
35.3664301
40
18.7789525
50
3.0686374
51
9.8304464
0
ARC
8
0
10
39.2109074
20
35.3477396
40
19.0801067
50
359.9967745
51
3.076363
0
ARC
8
0
10
39.3277573
20
35.3423498
40
18.9632572
50
353.5273899
51
0.0130395
0
ARC
8
0
10
39.6584458
20
35.3057173
40
18.6305471
50
346.1936338
51
353.5246869
0
ARC
8
0
10
39.7998399
20
35.2721826
40
18.4852355
50
337.1615113
51
346.1899864
0
ARC
8
0
10
39.7705862
20
35.2867307
40
18.5178425
50
324.8886433
51
337.1551587
0
ARC
8
0
10
39.7035416
20
35.3314659
40
18.5984177
50
298.1259287
51
324.8947025
0
ARC
8
0
10
39.7636219
20
35.2299725
40
18.4805875
50
287.9183161
51
298.1099913
0
ARC
8
0
10
39.7476574
20
35.284538
40
18.5374181
50
279.8330989
51
287.9133786
0
ARC
8
0
10
39.7072556
20
35.5227441
40
18.7790246
50
273.0686516
51
279.8304377
0
ARC
8
0
10
39.688573
20
35.8232825
40
19.0801322
50
269.9967745
51
273.0763606
0
ARC
8
0
10
39.6831832
20
35.7064003
40
18.9632504
50
263.5273887
51
270.0130395
0
ARC
8
0
10
39.6465623
20
35.3757707
40
18.6306001
50
256.1936391
51
263.5246706
0
ARC
8
0
10
39.6130082
20
35.2342926
40
18.4852023
50
247.1614971
51
256.1899882
0
ARC
8
0
10
39.6275797
20
35.2635996
40
18.5178675
50
234.8886422
51
247.1551418
0
ARC
8
0
10
39.6723064
20
35.3306301
40
18.5984264
50
208.1259342
51
234.8946979
0
ARC
8
0
10
39.5707817
20
35.2705358
40
18.4805617
50
197.9183152
51
208.1100042
0
ARC
8
0
10
39.6253655
20
35.2865075
40
18.537412
50
189.8331004
51
197.9133814
0
ARC
8
0
10
39.8635734
20
35.3269096
40
18.7790204
50
183.0686535
51
189.8304391
0
ARC
8
0
10
40.1641014
20
35.3455913
40
19.0801177
50
179.9967745
51
183.0763618
0
LINE
8
DEFAULT_255_2_778
10
21.0839838
20
35.3466655
11
21.0839838
21
35.3466655
0
ARC
8
0
10
35.3907182
20
37.8756931
40
15.4466522
50
325.5904775
51
326.3068153
0
ARC
8
0
10
36.3800483
20
37.1980833
40
14.2475154
50
324.8612556
51
325.5903441
0
ARC
8
0
10
37.2727732
20
36.5698117
40
13.1558731
50
324.1193945
51
324.8610837
0
ARC
8
0
10
38.2619977
20
35.8526869
40
11.9340583
50
322.9812938
51
324.1254467
0
ARC
8
0
10
39.2912672
20
35.0766232
40
10.6450002
50
321.8114256
51
322.9809784
0
ARC
8
0
10
40.1671762
20
34.3877211
40
9.5306382
50
320.6182644
51
321.8110121
0
ARC
8
0
10
40.9729722
20
33.7256032
40
8.4877062
50
319.1977899
51
320.6217065
0
ARC
8
0
10
41.7451789
20
33.0583869
40
7.4671767
50
317.5409988
51
319.2013519
0
ARC
8
0
10
42.4201454
20
32.4409516
40
6.5524058
50
315.8503842
51
317.5399045
0
ARC
8
0
10
42.967505
20
31.9097717
40
5.7896773
50
314.1409542
51
315.8491885
0
ARC
8
0
10
43.4609156
20
31.4003158
40
5.0804532
50
311.9811465
51
314.1489922
0
ARC
8
0
10
43.9108505
20
30.8999947
40
4.4075769
50
309.5870001
51
311.9836414
0
ARC
8
0
10
44.2831442
20
30.4496056
40
3.8232372
50
306.983393
51
309.5884851
0
ARC
8
0
10
44.5913327
20
30.039854
40
3.3105226
50
303.9843088
51
306.9888575
0
ARC
8
0
10
44.8417435
20
29.6681212
40
2.8623142
50
300.6499688
51
303.9872651
0
ARC
8
0
10
45.0408318
20
29.3313938
40
2.4711346
50
296.6750073
51
300.6589117
0
ARC
8
0
10
45.1946212
20
29.0244712
40
2.1278382
50
291.9137843
51
296.6848428
0
ARC
8
0
10
45.3019217
20
28.7569795
40
1.8396282
50
286.2050944
51
291.9226061
0
ARC
8
0
10
45.3648404
20
28.539988
40
1.613699
50
279.3344651
51
286.2100064
0
ARC
8
0
10
45.3903036
20
28.3848483
40
1.4564834
50
270.3444595
51
279.3359293
0
ARC
8
0
10
45.3918526
20
28.3399056
40
1.4115329
50
270.0000824
51
270.2925517
0
ARC
8
0
10
45.4034437
20
28.4291509
40
1.5008229
50
242.5776018
51
269.5575701
0
ARC
8
0
10
45.66866
20
28.9885952
40
2.1196666
50
234.7669685
51
243.1786345
0
ARC
8
0
10
46.0664696
20
29.5562228
40
2.8128106
50
228.8820341
51
234.8185109
0
ARC
8
0
10
46.6857597
20
30.2677799
40
3.7561199
50
224.3071259
51
228.9031075
0
ARC
8
0
10
47.6588027
20
31.2184306
40
5.1164688
50
220.6002743
51
224.31403
0
ARC
8
0
10
49.2478817
20
32.5815384
40
7.2100863
50
217.7077616
51
220.6068456
0
ARC
8
0
10
52.1551242
20
34.8281712
40
10.8842415
50
215.4796267
51
217.7037276
0
ARC
8
0
10
59.08003
20
39.7625157
40
19.3873042
50
214.0631836
51
215.4761888
0
ARC
8
0
10
93.3555376
20
62.9458005
40
60.76695
50
213.612626
51
214.0703133
0
LINE
8
0
10
42.7488659
20
29.3067311
11
42.7474711
21
29.3088233
0
ARC
8
0
10
11.1640259
20
8.4084352
40
37.8726845
50
33.4946533
51
34.6520883
0
ARC
8
0
10
31.4416638
20
22.3949723
40
13.2392893
50
34.7563733
51
36.8243025
0
ARC
8
0
10
35.3388578
20
25.3071836
40
8.3742034
50
36.8562941
51
39.270316
0
ARC
8
0
10
37.2256176
20
26.8512829
40
5.9361502
50
39.2595862
51
42.4859201
0
ARC
8
0
10
38.4015848
20
27.9290227
40
4.341026
50
42.4791459
51
46.5109556
0
ARC
8
0
10
39.1617026
20
28.7319349
40
3.2353835
50
46.4913532
51
51.7138995
0
ARC
8
0
10
39.6621984
20
29.3685834
40
2.4255603
50
51.6759241
51
58.795703
0
ARC
8
0
10
39.969386
20
29.880127
40
1.8288743
50
58.7242487
51
69.3733491
0
ARC
8
0
10
40.1029947
20
30.2413887
40
1.4437055
50
69.2852272
51
89.8486524
0
ARC
8
0
10
40.1079948
20
30.2355
40
1.4495894
50
90.0468991
51
98.8319991
0
ARC
8
0
10
40.1310944
20
30.0875617
40
1.5993203
50
98.8359971
51
105.8056952
0
ARC
8
0
10
40.1904293
20
29.8770866
40
1.8179989
50
105.7982326
51
111.4699497
0
ARC
8
0
10
40.2891511
20
29.624843
40
2.0888728
50
111.4575226
51
116.03746
0
ARC
8
0
10
40.4277017
20
29.3405079
40
2.4051681
50
116.0297748
51
119.9171597
0
ARC
8
0
10
40.6178361
20
29.0101169
40
2.7863627
50
119.9175055
51
123.5296537
0
ARC
8
0
10
40.8734847
20
28.6239157
40
3.2495123
50
123.5258337
51
126.7419436
0
ARC
8
0
10
41.1894513
20
28.1998445
40
3.7783516
50
126.7345363
51
129.458036
0
ARC
8
0
10
41.551129
20
27.759575
40
4.3481302
50
129.4508001
51
131.7174802
0
ARC
8
0
10
41.9801499
20
27.2785239
40
4.9926993
50
131.7188231
51
133.922184
0
ARC
8
0
10
42.5085851
20
26.7295943
40
5.7546491
50
133.9205985
51
135.9452723
0
ARC
8
0
10
43.0997688
20
26.1566307
40
6.577926
50
135.9391885
51
137.6015175
0
ARC
8
0
10
43.7024675
20
25.6054732
40
7.3946388
50
137.5966697
51
138.9508316
0
ARC
8
0
10
44.409226
20
24.99088
40
8.3312453
50
138.955231
51
140.4698206
0
ARC
8
0
10
45.2447365
20
24.3006031
40
9.4150164
50
140.4660853
51
141.7356703
0
ARC
8
0
10
46.1785251
20
23.5643968
40
10.6041171
50
141.736994
51
143.0152351
0
ARC
8
0
10
47.1301419
20
22.8460941
40
11.7963975
50
143.0090096
51
143.9077491
0
ARC
8
0
10
48.0924326
20
22.1449652
40
12.9870212
50
143.9091258
51
144.8622569
0
ARC
8
0
10
49.1086493
20
21.4289637
40
14.2301438
50
144.8596495
51
145.6107373
0
ARC
8
0
10
50.1147001
20
20.7402995
40
15.4493225
50
145.6104812
51
146.3246795
0
LINE
8
DEFAULT_4_2_778
10
58.291014
20
71.3134613
11
63.2519514
21
71.3134613
0
LINE
8
DEFAULT_4_2_778
10
60.7714827
20
73.79393
11
60.7714827
21
71.3134613
0
LINE
8
DEFAULT_4_2_778
10
16.1230464
20
71.3134613
11
21.0839838
21
71.3134613
0
LINE
8
DEFAULT_4_2_778
10
18.6035283
20
73.79393
11
18.6035283
21
71.3134613
0
LINE
8
DEFAULT_4_2_778
10
37.2070434
20
71.3134613
11
42.1679808
21
71.3134613
0
LINE
8
DEFAULT_4_2_778
10
39.6875121
20
73.7939433
11
39.6875121
21
71.3134746
0
LINE
8
DEFAULT_4_2_778
10
16.1230597
20
0.6201172
11
21.083997
21
0.6201172
0
LINE
8
DEFAULT_4_2_778
10
18.6035151
20
0.6201039
11
18.6035151
21
-1.8603647
0
LINE
8
DEFAULT_4_2_778
10
58.291014
20
0.6201039
11
63.2519514
21
0.6201039
0
LINE
8
DEFAULT_4_2_778
10
60.7714959
20
0.6201039
11
60.7714959
21
-1.8603647
0
LINE
8
DEFAULT_4_2_778
10
37.2070434
20
0.6201039
11
42.1679808
21
0.6201039
0
LINE
8
DEFAULT_4_2_778
10
39.6874989
20
0.6201039
11
39.6874989
21
-1.8603647
0
ENDSEC
0
EOF