0
SECTION
2
HEADER
0
ENDSEC
0
SECTION
2
TABLES
0
TABLE
2
LTYPE
0
LTYPE
72
65
70
64
2
CONTINUOUS
3
______
73
0
40
0
0
ENDTAB
0
TABLE
2
LAYER
0
LAYER
2
DEFAULT_255_2_778
70
0
62
255
6
CONTINUOUS
0
LAYER
2
DEFAULT_4_2_778
70
0
62
4
6
CONTINUOUS
0
ENDTAB
0
ENDSEC
0
SECTION
2
ENTITIES
0
ARC
8
0
10
40.0233832
20
24.1885855
40
17.6990068
50
173.5273817
51
180.013043
0
ARC
8
0
10
39.7080817
20
24.2238405
40
17.3817409
50
165.6970684
51
173.5256904
0
ARC
8
0
10
39.5797437
20
24.255126
40
17.249652
50
156.136036
51
165.6924515
0
ARC
8
0
10
39.6219978
20
24.2339319
40
17.2968684
50
142.538991
51
156.1284581
0
ARC
8
0
10
39.6719149
20
24.1997895
40
17.3572572
50
118.3561132
51
142.5497506
0
ARC
8
0
10
39.6167498
20
24.2931023
40
17.2489406
50
107.8471427
51
118.342072
0
ARC
8
0
10
39.6324527
20
24.2389903
40
17.3052614
50
99.5139955
51
107.8417232
0
ARC
8
0
10
39.672064
20
23.9960714
40
17.5513861
50
92.3721119
51
99.5104527
0
ARC
8
0
10
39.6870438
20
23.7153009
40
17.8325364
50
89.9980278
51
92.3828627
0
ARC
8
0
10
39.6916867
20
23.8488309
40
17.6990068
50
83.5273817
51
90.013043
0
ARC
8
0
10
39.7269418
20
24.1641321
40
17.3817411
50
75.6970684
51
83.5256904
0
ARC
8
0
10
39.7582171
20
24.2924443
40
17.2496797
50
66.1360398
51
75.6924401
0
ARC
8
0
10
39.7370311
20
24.2502153
40
17.2968698
50
52.5389865
51
66.128453
0
ARC
8
0
10
39.7028894
20
24.200298
40
17.3572585
50
28.3561118
51
52.5497482
0
ARC
8
0
10
39.7962041
20
24.2554637
40
17.2489399
50
17.8471427
51
28.3420721
0
ARC
8
0
10
39.7420932
20
24.2397611
40
17.3052596
50
9.5139955
51
17.8417233
0
ARC
8
0
10
39.4991787
20
24.20015
40
17.55138
50
2.3721123
51
9.5104544
0
ARC
8
0
10
39.2184153
20
24.1851702
40
17.8325232
50
359.9980278
51
2.382864
0
ARC
8
0
10
39.3519321
20
24.1805274
40
17.6990068
50
353.5273817
51
0.013043
0
ARC
8
0
10
39.6672334
20
24.1452723
40
17.3817411
50
345.6970684
51
353.5256904
0
ARC
8
0
10
39.7955455
20
24.1139969
40
17.2496797
50
336.1360398
51
345.6924401
0
ARC
8
0
10
39.7533165
20
24.1351829
40
17.2968698
50
322.5389865
51
336.128453
0
ARC
8
0
10
39.7033992
20
24.1693247
40
17.3572585
50
298.3561118
51
322.5497482
0
ARC
8
0
10
39.758565
20
24.0760099
40
17.2489399
50
287.8471427
51
298.3420721
0
ARC
8
0
10
39.7428623
20
24.1301209
40
17.3052596
50
279.5139955
51
287.8417233
0
ARC
8
0
10
39.7032512
20
24.3730354
40
17.55138
50
272.3721123
51
279.5104544
0
ARC
8
0
10
39.6882715
20
24.6537987
40
17.8325232
50
269.9980278
51
272.382864
0
ARC
8
0
10
39.6836286
20
24.5202888
40
17.6990136
50
263.527383
51
270.013043
0
ARC
8
0
10
39.6483734
20
24.2049859
40
17.3817463
50
255.6970709
51
263.5256915
0
ARC
8
0
10
39.6170947
20
24.0766619
40
17.2496726
50
246.1360387
51
255.6924436
0
ARC
8
0
10
39.638276
20
24.118885
40
17.2968554
50
232.5389806
51
246.1284585
0
ARC
8
0
10
39.6724247
20
24.1688134
40
17.3572572
50
208.356109
51
232.5497462
0
ARC
8
0
10
39.5791104
20
24.1136489
40
17.2489396
50
197.8471427
51
208.342072
0
ARC
8
0
10
39.6332222
20
24.129349
40
17.305259
50
189.5139866
51
197.8417145
0
ARC
8
0
10
39.8761365
20
24.1689628
40
17.55138
50
182.3721123
51
189.5104544
0
ARC
8
0
10
40.1569
20
24.1839426
40
17.8325232
50
179.9980278
51
182.382864
0
LINE
8
DEFAULT_255_2_778
10
22.3243769
20
24.1845564
11
22.3243769
21
24.1845564
0
ARC
8
0
10
39.6833327
20
59.5071643
40
3.0765181
50
263.2948288
51
270.0804936
0
ARC
8
0
10
39.6380227
20
59.1247456
40
2.6914247
50
255.2602434
51
263.3022536
0
ARC
8
0
10
39.5655669
20
58.8496569
40
2.4069539
50
245.5131713
51
255.2621664
0
ARC
8
0
10
39.4958168
20
58.6951445
40
2.2374286
50
232.8516727
51
245.4986678
0
ARC
8
0
10
39.5096557
20
58.7049221
40
2.2535851
50
212.5827598
51
232.7213446
0
ARC
8
0
10
39.8417942
20
58.8933165
40
2.6349803
50
179.6129172
51
212.1452928
0
ARC
8
0
10
39.7923163
20
58.9386992
40
2.5855891
50
141.5295869
51
180.6112031
0
ARC
8
0
10
39.4870724
20
59.1413312
40
2.2207652
50
123.9305502
51
140.7233402
0
ARC
8
0
10
39.5085695
20
59.1044738
40
2.2633474
50
112.2341896
51
123.8612663
0
ARC
8
0
10
39.5823311
20
58.9227168
40
2.4595007
50
102.8500111
51
112.2225763
0
ARC
8
0
10
39.6498123
20
58.6291679
40
2.7607055
50
95.3991847
51
102.8605135
0
ARC
8
0
10
39.684743
20
58.2747261
40
3.116862
50
89.9464726
51
95.4253751
0
ARC
8
0
10
39.6833327
20
64.4681017
40
3.0765181
50
263.2948288
51
270.0804936
0
ARC
8
0
10
39.6380227
20
64.085683
40
2.6914247
50
255.2602434
51
263.3022536
0
ARC
8
0
10
39.5655669
20
63.8105942
40
2.4069539
50
245.5131713
51
255.2621664
0
ARC
8
0
10
39.4958168
20
63.6560818
40
2.2374286
50
232.8516727
51
245.4986678
0
ARC
8
0
10
39.5096557
20
63.6658595
40
2.2535851
50
212.5827598
51
232.7213446
0
ARC
8
0
10
39.8417942
20
63.8542539
40
2.6349803
50
179.6129172
51
212.1452928
0
ARC
8
0
10
39.7923163
20
63.8996366
40
2.5855891
50
141.5295869
51
180.6112031
0
ARC
8
0
10
39.4870724
20
64.1022686
40
2.2207652
50
123.9305502
51
140.7233402
0
ARC
8
0
10
39.5085695
20
64.0654111
40
2.2633474
50
112.2341896
51
123.8612663
0
ARC
8
0
10
39.5823311
20
63.8836541
40
2.4595007
50
102.8500111
51
112.2225763
0
ARC
8
0
10
39.6498123
20
63.5901053
40
2.7607055
50
95.3991847
51
102.8605135
0
ARC
8
0
10
39.684743
20
63.2356634
40
3.116862
50
89.9464726
51
95.4253751
0
ARC
8
0
10
39.6833327
20
69.429039
40
3.0765181
50
263.2948288
51
270.0804936
0
ARC
8
0
10
39.6380227
20
69.0466203
40
2.6914247
50
255.2602434
51
263.3022536
0
ARC
8
0
10
39.5655669
20
68.7715316
40
2.4069539
50
245.5131713
51
255.2621664
0
ARC
8
0
10
39.4958168
20
68.6170192
40
2.2374286
50
232.8516727
51
245.4986678
0
ARC
8
0
10
39.5096557
20
68.6267968
40
2.2535851
50
212.5827598
51
232.7213446
0
ARC
8
0
10
39.8417942
20
68.8151912
40
2.6349803
50
179.6129172
51
212.1452928
0
ARC
8
0
10
39.7923163
20
68.8605739
40
2.5855891
50
141.5295869
51
180.6112031
0
ARC
8
0
10
39.4870724
20
69.063206
40
2.2207652
50
123.9305502
51
140.7233402
0
ARC
8
0
10
39.5085695
20
69.0263485
40
2.2633474
50
112.2341896
51
123.8612663
0
ARC
8
0
10
39.5823311
20
68.8445915
40
2.4595007
50
102.8500111
51
112.2225763
0
ARC
8
0
10
39.6498123
20
68.5510427
40
2.7607055
50
95.3991847
51
102.8605135
0
ARC
8
0
10
39.684743
20
68.1966008
40
3.116862
50
89.9464726
51
95.4253751
0
LINE
8
DEFAULT_255_2_778
10
39.6876548
20
41.5478372
11
39.6876548
21
56.4306493
0
ARC
8
0
10
31.1840525
20
29.2310102
40
19.1621176
50
325.7374448
51
326.3161446
0
ARC
8
0
10
32.5053033
20
28.3309675
40
17.5634368
50
325.1459812
51
325.737475
0
ARC
8
0
10
33.6819742
20
27.5114832
40
16.129523
50
324.5423696
51
325.1460699
0
ARC
8
0
10
34.9941963
20
26.5753051
40
14.5175817
50
323.611697
51
324.5476497
0
ARC
8
0
10
36.3624627
20
25.5670063
40
12.8179291
50
322.6484499
51
323.611542
0
ARC
8
0
10
37.5246869
20
24.6800272
40
11.3559109
50
321.6593908
51
322.6482408
0
ARC
8
0
10
38.5938423
20
23.8336918
40
9.9923214
50
320.4730429
51
321.6627015
0
ARC
8
0
10
39.6064993
20
22.9976078
40
8.6791152
50
319.1178369
51
320.4756581
0
ARC
8
0
10
40.4944021
20
22.2289148
40
7.5046959
50
317.6781197
51
319.1181323
0
ARC
8
0
10
41.2267341
20
21.5621694
40
6.5143124
50
316.2044891
51
317.6772296
0
ARC
8
0
10
41.822607
20
20.9909928
40
5.6888989
50
314.702625
51
316.203359
0
ARC
8
0
10
42.3622779
20
20.4446848
40
4.920982
50
312.7879342
51
314.7108631
0
ARC
8
0
10
42.876261
20
19.8884591
40
4.1636411
50
310.4401596
51
312.796721
0
ARC
8
0
10
43.2976013
20
19.3944287
40
3.5143387
50
308.0659289
51
310.4365599
0
ARC
8
0
10
43.6414841
20
18.9542505
40
2.9557588
50
305.0926943
51
308.0787266
0
ARC
8
0
10
43.9338399
20
18.5374084
40
2.4466133
50
301.5519831
51
305.1027798
0
ARC
8
0
10
44.1615209
20
18.1659112
40
2.0108971
50
297.3604471
51
301.5625857
0
ARC
8
0
10
44.3275152
20
17.8444112
40
1.6490736
50
292.3794628
51
297.3719869
0
ARC
8
0
10
44.4391143
20
17.5723852
40
1.3550459
50
286.2881744
51
292.3954114
0
ARC
8
0
10
44.5037197
20
17.3499839
40
1.1234514
50
278.5975183
51
286.3067494
0
ARC
8
0
10
44.5274586
20
17.1953845
40
0.9670405
50
270.0789732
51
278.5761498
0
ARC
8
0
10
44.5326137
20
17.1450857
40
0.9167486
50
237.6622413
51
269.7611112
0
ARC
8
0
10
44.7327972
20
17.486246
40
1.3121461
50
227.9813205
51
238.2453165
0
ARC
8
0
10
45.0732606
20
17.8681108
40
1.8237426
50
221.170482
51
228.0652202
0
ARC
8
0
10
45.6116306
20
18.3408837
40
2.5402305
50
216.0140383
51
221.2036809
0
ARC
8
0
10
46.4634177
20
18.9611224
40
3.5939083
50
211.9390326
51
216.0277101
0
ARC
8
0
10
47.8518861
20
19.8279728
40
5.230757
50
208.8274073
51
211.9510423
0
ARC
8
0
10
50.3701274
20
21.2137818
40
8.1051276
50
206.4714431
51
208.8263241
0
ARC
8
0
10
56.2871381
20
24.1599473
40
14.7150373
50
204.9934873
51
206.4705161
0
ARC
8
0
10
85.2180327
20
37.6548071
40
46.6385065
50
204.5279275
51
205.0025793
0
ARC
8
0
10
16.2652044
20
6.2591134
40
29.1255242
50
24.4053
51
25.6005069
0
ARC
8
0
10
33.539872
20
14.5154675
40
9.9792314
50
25.7064858
51
27.8728977
0
ARC
8
0
10
36.9099365
20
16.2938457
40
6.1687267
50
27.9052358
51
30.4737311
0
ARC
8
0
10
38.5594921
20
17.2658351
40
4.2541001
50
30.458115
51
33.9548783
0
ARC
8
0
10
39.6135258
20
17.9771833
40
2.9824867
50
33.9293738
51
38.6552614
0
ARC
8
0
10
40.2836556
20
18.5138877
40
2.1239268
50
38.6407719
51
44.5996888
0
ARC
8
0
10
40.7065562
20
18.9331025
40
1.5284585
50
44.5414298
51
52.9522446
0
ARC
8
0
10
40.962811
20
19.2769455
40
1.0996405
50
52.8150473
51
66.7112126
0
ARC
8
0
10
41.0482744
20
19.470325
40
0.8882299
50
66.843098
51
90.0390454
0
ARC
8
0
10
41.0494869
20
19.3824238
40
0.9761326
50
90.1067035
51
99.7966421
0
ARC
8
0
10
41.0788263
20
19.210646
40
1.1503978
50
99.7808636
51
107.1360392
0
ARC
8
0
10
41.148925
20
18.9821838
40
1.3893719
50
107.1225311
51
113.1202314
0
ARC
8
0
10
41.2685508
20
18.7008107
40
1.6951185
50
113.1044582
51
118.0192693
0
ARC
8
0
10
41.4429457
20
18.3720269
40
2.0672907
50
118.0054604
51
122.079175
0
ARC
8
0
10
41.6735436
20
18.0030056
40
2.5024364
50
122.0655584
51
125.4086239
0
ARC
8
0
10
41.9717711
20
17.5832572
40
3.0173426
50
125.4060359
51
128.4297405
0
ARC
8
0
10
42.3509059
20
17.1046382
40
3.6279317
50
128.4220866
51
131.0029209
0
ARC
8
0
10
42.8032895
20
16.5835243
40
4.3180117
50
130.9963073
51
133.1988116
0
ARC
8
0
10
43.3139417
20
16.0387406
40
5.0647076
50
133.1912866
51
135.0008484
0
ARC
8
0
10
43.9071234
20
15.4456618
40
5.9035203
50
135.0014342
51
136.7426645
0
ARC
8
0
10
44.632505
20
14.7629104
40
6.8996768
50
136.7414217
51
138.3516217
0
ARC
8
0
10
45.4329512
20
14.0498876
40
7.9716448
50
138.3454786
51
139.6345279
0
ARC
8
0
10
46.2307917
20
13.370838
40
9.0193364
50
139.6303522
51
140.6758075
0
ARC
8
0
10
47.0144126
20
12.7282718
40
10.0327233
50
140.6730364
51
141.529692
0
ARC
8
0
10
47.9479522
20
11.9875488
40
11.2244307
50
141.533922
51
142.5833758
0
ARC
8
0
10
49.1776496
20
11.0469755
40
12.7726018
50
142.5839703
51
143.6175688
0
ARC
8
0
10
50.4295103
20
10.1230457
40
14.3284939
50
143.6125115
51
144.3500983
0
ARC
8
0
10
51.7038121
20
9.2094734
40
15.8964413
50
144.3513225
51
145.1297944
0
ARC
8
0
10
53.0523996
20
8.2688032
40
17.5406882
50
145.1273159
51
145.7380519
0
ARC
8
0
10
54.3890964
20
7.3581281
40
19.1581205
50
145.7376995
51
146.3162222
0
ARC
8
0
10
62.0075489
20
59.5071776
40
3.0765181
50
263.2948288
51
270.0804936
0
ARC
8
0
10
61.9622389
20
59.1247588
40
2.6914247
50
255.2602434
51
263.3022536
0
ARC
8
0
10
61.8897831
20
58.8496701
40
2.4069539
50
245.5131713
51
255.2621664
0
ARC
8
0
10
61.820033
20
58.6951577
40
2.2374286
50
232.8516727
51
245.4986678
0
ARC
8
0
10
61.8338719
20
58.7049353
40
2.2535851
50
212.5827598
51
232.7213446
0
ARC
8
0
10
62.1660105
20
58.8933297
40
2.6349803
50
179.6129172
51
212.1452928
0
ARC
8
0
10
62.1165325
20
58.9387124
40
2.5855891
50
141.5295869
51
180.6112031
0
ARC
8
0
10
61.8112886
20
59.1413445
40
2.2207652
50
123.9305502
51
140.7233402
0
ARC
8
0
10
61.8327857
20
59.104487
40
2.2633474
50
112.2341896
51
123.8612663
0
ARC
8
0
10
61.9065474
20
58.92273
40
2.4595007
50
102.8500111
51
112.2225763
0
ARC
8
0
10
61.9740286
20
58.6291812
40
2.7607055
50
95.3991847
51
102.8605135
0
ARC
8
0
10
62.0089592
20
58.2747393
40
3.116862
50
89.9464726
51
95.4253751
0
ARC
8
0
10
62.0075489
20
64.4681149
40
3.0765181
50
263.2948288
51
270.0804936
0
ARC
8
0
10
61.9622389
20
64.0856962
40
2.6914247
50
255.2602434
51
263.3022536
0
ARC
8
0
10
61.8897831
20
63.8106075
40
2.4069539
50
245.5131713
51
255.2621664
0
ARC
8
0
10
61.820033
20
63.6560951
40
2.2374286
50
232.8516727
51
245.4986678
0
ARC
8
0
10
61.8338719
20
63.6658727
40
2.2535851
50
212.5827598
51
232.7213446
0
ARC
8
0
10
62.1660105
20
63.8542671
40
2.6349803
50
179.6129172
51
212.1452928
0
ARC
8
0
10
62.1165325
20
63.8996498
40
2.5855891
50
141.5295869
51
180.6112031
0
ARC
8
0
10
61.8112886
20
64.1022818
40
2.2207652
50
123.9305502
51
140.7233402
0
ARC
8
0
10
61.8327857
20
64.0654243
40
2.2633474
50
112.2341896
51
123.8612663
0
ARC
8
0
10
61.9065474
20
63.8836674
40
2.4595007
50
102.8500111
51
112.2225763
0
ARC
8
0
10
61.9740286
20
63.5901185
40
2.7607055
50
95.3991847
51
102.8605135
0
ARC
8
0
10
62.0089592
20
63.2356767
40
3.116862
50
89.9464726
51
95.4253751
0
ARC
8
0
10
62.0075489
20
69.4290523
40
3.0765181
50
263.2948288
51
270.0804936
0
ARC
8
0
10
61.9622389
20
69.0466336
40
2.6914247
50
255.2602434
51
263.3022536
0
ARC
8
0
10
61.8897831
20
68.7715448
40
2.4069539
50
245.5131713
51
255.2621664
0
ARC
8
0
10
61.820033
20
68.6170324
40
2.2374286
50
232.8516727
51
245.4986678
0
ARC
8
0
10
61.8338719
20
68.6268101
40
2.2535851
50
212.5827598
51
232.7213446
0
ARC
8
0
10
62.1660105
20
68.8152045
40
2.6349803
50
179.6129172
51
212.1452928
0
ARC
8
0
10
62.1165325
20
68.8605872
40
2.5855891
50
141.5295869
51
180.6112031
0
ARC
8
0
10
61.8112886
20
69.0632192
40
2.2207652
50
123.9305502
51
140.7233402
0
ARC
8
0
10
61.8327857
20
69.0263617
40
2.2633474
50
112.2341896
51
123.8612663
0
ARC
8
0
10
61.9065474
20
68.8446047
40
2.4595007
50
102.8500111
51
112.2225763
0
ARC
8
0
10
61.9740286
20
68.5510559
40
2.7607055
50
95.3991847
51
102.8605135
0
ARC
8
0
10
62.0089592
20
68.196614
40
3.116862
50
89.9464726
51
95.4253751
0
ARC
8
0
10
17.3591125
20
59.5071643
40
3.0765048
50
263.2948129
51
270.0804966
0
ARC
8
0
10
17.3138026
20
59.1247487
40
2.6914146
50
255.2602116
51
263.3022401
0
ARC
8
0
10
17.2413471
20
58.8496644
40
2.4069482
50
245.5131473
51
255.2621525
0
ARC
8
0
10
17.1715973
20
58.6951515
40
2.2374225
50
232.8516149
51
245.4986302
0
ARC
8
0
10
17.1854406
20
58.7049346
40
2.253586
50
212.5827188
51
232.7212802
0
ARC
8
0
10
17.517582
20
58.8933296
40
2.6349841
50
179.6129148
51
212.1452366
0
ARC
8
0
10
17.4681039
20
58.9387124
40
2.5855929
50
141.5296504
51
180.6112011
0
ARC
8
0
10
17.1628578
20
59.1413434
40
2.2207678
50
123.9306025
51
140.7233582
0
ARC
8
0
10
17.1843457
20
59.1045007
40
2.2633326
50
112.2341949
51
123.8613339
0
ARC
8
0
10
17.2581086
20
58.922746
40
2.4594843
50
102.8500134
51
112.2226279
0
ARC
8
0
10
17.3255935
20
58.6291827
40
2.760704
50
95.3992025
51
102.8605242
0
ARC
8
0
10
17.360523
20
58.2747483
40
3.116853
50
89.9464725
51
95.4253825
0
ARC
8
0
10
17.3591125
20
64.4681017
40
3.0765048
50
263.2948129
51
270.0804966
0
ARC
8
0
10
17.3138026
20
64.0856861
40
2.6914146
50
255.2602116
51
263.3022401
0
ARC
8
0
10
17.2413471
20
63.8106018
40
2.4069482
50
245.5131473
51
255.2621525
0
ARC
8
0
10
17.1715973
20
63.6560889
40
2.2374225
50
232.8516149
51
245.4986302
0
ARC
8
0
10
17.1854406
20
63.6658719
40
2.253586
50
212.5827188
51
232.7212802
0
ARC
8
0
10
17.517582
20
63.854267
40
2.6349841
50
179.6129148
51
212.1452366
0
ARC
8
0
10
17.4681039
20
63.8996497
40
2.5855929
50
141.5296504
51
180.6112011
0
ARC
8
0
10
17.1628578
20
64.1022807
40
2.2207678
50
123.9306025
51
140.7233582
0
ARC
8
0
10
17.1843457
20
64.0654381
40
2.2633326
50
112.2341949
51
123.8613339
0
ARC
8
0
10
17.2581086
20
63.8836833
40
2.4594843
50
102.8500134
51
112.2226279
0
ARC
8
0
10
17.3255935
20
63.5901201
40
2.760704
50
95.3992025
51
102.8605242
0
ARC
8
0
10
17.360523
20
63.2356857
40
3.116853
50
89.9464725
51
95.4253825
0
ARC
8
0
10
17.3591125
20
69.429039
40
3.0765048
50
263.2948129
51
270.0804966
0
ARC
8
0
10
17.3138026
20
69.0466234
40
2.6914146
50
255.2602116
51
263.3022401
0
ARC
8
0
10
17.2413471
20
68.7715391
40
2.4069482
50
245.5131473
51
255.2621525
0
ARC
8
0
10
17.1715973
20
68.6170263
40
2.2374225
50
232.8516149
51
245.4986302
0
ARC
8
0
10
17.1854406
20
68.6268093
40
2.253586
50
212.5827188
51
232.7212802
0
ARC
8
0
10
17.517582
20
68.8152043
40
2.6349841
50
179.6129148
51
212.1452366
0
ARC
8
0
10
17.4681039
20
68.8605871
40
2.5855929
50
141.5296504
51
180.6112011
0
ARC
8
0
10
17.1628578
20
69.0632181
40
2.2207678
50
123.9306025
51
140.7233582
0
ARC
8
0
10
17.1843457
20
69.0263755
40
2.2633326
50
112.2341949
51
123.8613339
0
ARC
8
0
10
17.2581086
20
68.8446207
40
2.4594843
50
102.8500134
51
112.2226279
0
ARC
8
0
10
17.3255935
20
68.5510575
40
2.760704
50
95.3992025
51
102.8605242
0
ARC
8
0
10
17.360523
20
68.1966231
40
3.116853
50
89.9464725
51
95.4253825
0
LINE
8
DEFAULT_255_2_778
10
46.5089418
20
8.0615232
11
57.0509337
21
-1.8603515
0
LINE
8
DEFAULT_255_2_778
10
57.0509337
20
-1.8603515
11
62.0118711
21
-1.8603515
0
LINE
8
DEFAULT_255_2_778
10
62.0118711
20
-1.8603515
11
62.0118711
21
56.4306625
0
LINE
8
DEFAULT_255_2_778
10
32.8663641
20
8.0615232
11
22.3243722
21
-1.8603515
0
LINE
8
DEFAULT_255_2_778
10
22.3243722
20
-1.8603515
11
17.3634348
21
-1.8603515
0
LINE
8
DEFAULT_255_2_778
10
17.3634348
20
-1.8603515
11
17.3634348
21
56.4306625
0
LINE
8
DEFAULT_4_2_778
10
59.5314071
20
71.3134613
11
64.4923445
21
71.3134613
0
LINE
8
DEFAULT_4_2_778
10
62.0118758
20
73.79393
11
62.0118758
21
71.3134613
0
LINE
8
DEFAULT_4_2_778
10
14.8829708
20
71.3134613
11
19.8439082
21
71.3134613
0
LINE
8
DEFAULT_4_2_778
10
17.3634395
20
73.79393
11
17.3634395
21
71.3134613
0
LINE
8
DEFAULT_4_2_778
10
37.207189
20
71.3134613
11
42.1681263
21
71.3134613
0
LINE
8
DEFAULT_4_2_778
10
39.6876576
20
73.79393
11
39.6876576
21
71.3134613
0
ENDSEC
0
EOF