0
SECTION
2
HEADER
0
ENDSEC
0
SECTION
2
TABLES
0
TABLE
2
LTYPE
0
LTYPE
72
65
70
64
2
CONTINUOUS
3
______
73
0
40
0
0
ENDTAB
0
TABLE
2
LAYER
0
LAYER
2
DEFAULT_255_2_778
70
0
62
255
6
CONTINUOUS
0
LAYER
2
DEFAULT_4_2_778
70
0
62
4
6
CONTINUOUS
0
ENDTAB
0
ENDSEC
0
SECTION
2
ENTITIES
0
LINE
8
DEFAULT_255_2_778
10
21.0839838
20
-4.9609374
11
58.291014
21
-4.9609374
0
LINE
8
DEFAULT_255_2_778
10
39.6874989
20
43.4082019
11
39.6874989
21
26.0449212
0
LINE
8
DEFAULT_255_2_778
10
60.7714827
20
43.4082085
11
60.7714827
21
31.6259823
0
LINE
8
DEFAULT_255_2_778
10
60.7714827
20
31.6259823
11
51.4697251
21
21.7041076
0
LINE
8
DEFAULT_255_2_778
10
18.6035151
20
43.4082085
11
18.6035151
21
31.6259823
0
LINE
8
DEFAULT_255_2_778
10
18.6035151
20
31.6259823
11
27.9052727
21
21.7041076
0
ARC
8
0
10
40.0471712
20
7.4457235
40
18.9631879
50
173.5273727
51
180.0130449
0
ARC
8
0
10
39.7165568
20
7.4823496
40
18.6305523
50
166.193625
51
173.5246754
0
ARC
8
0
10
39.5751554
20
7.5158858
40
18.4852334
50
157.1615008
51
166.1899769
0
ARC
8
0
10
39.6044206
20
7.5013315
40
18.5178534
50
144.8886349
51
157.1551442
0
ARC
8
0
10
39.6714663
20
7.456595
40
18.5984301
50
118.125934
51
144.8946929
0
ARC
8
0
10
39.6113698
20
7.5581239
40
18.480561
50
107.9183152
51
118.1100042
0
ARC
8
0
10
39.6273411
20
7.503544
40
18.5374074
50
99.8331019
51
107.9133841
0
ARC
8
0
10
39.6677424
20
7.2653424
40
18.7790094
50
93.0686528
51
99.8304413
0
ARC
8
0
10
39.6864248
20
6.9648145
40
19.0801067
50
89.9967745
51
93.076363
0
ARC
8
0
10
39.6918164
20
7.0817133
40
18.9632083
50
83.5273764
51
90.013045
0
ARC
8
0
10
39.7284428
20
7.4123352
40
18.6305652
50
76.1936297
51
83.5246776
0
ARC
8
0
10
39.7619829
20
7.5537519
40
18.4852305
50
67.1615029
51
76.1899821
0
ARC
8
0
10
39.7474308
20
7.5244905
40
18.5178462
50
54.8886337
51
67.1551481
0
ARC
8
0
10
39.7026954
20
7.457447
40
18.5984205
50
28.1259205
51
54.8946904
0
ARC
8
0
10
39.8041973
20
7.5175299
40
18.4805818
50
17.9183117
51
28.1099885
0
ARC
8
0
10
39.7496375
20
7.5015667
40
18.5374065
50
9.8330933
51
17.9133757
0
ARC
8
0
10
39.5114919
20
7.4611706
40
18.7789525
50
3.0686374
51
9.8304464
0
ARC
8
0
10
39.2109074
20
7.4424802
40
19.0801067
50
359.9967745
51
3.076363
0
ARC
8
0
10
39.3277573
20
7.4370903
40
18.9632572
50
353.5273899
51
0.0130395
0
ARC
8
0
10
39.6584458
20
7.4004578
40
18.6305471
50
346.1936338
51
353.5246869
0
ARC
8
0
10
39.7998399
20
7.3669232
40
18.4852355
50
337.1615113
51
346.1899864
0
ARC
8
0
10
39.7705862
20
7.3814712
40
18.5178425
50
324.8886433
51
337.1551587
0
ARC
8
0
10
39.7035416
20
7.4262065
40
18.5984177
50
298.1259287
51
324.8947025
0
ARC
8
0
10
39.7636219
20
7.3247131
40
18.4805875
50
287.9183161
51
298.1099913
0
ARC
8
0
10
39.7476574
20
7.3792786
40
18.5374181
50
279.8330989
51
287.9133786
0
ARC
8
0
10
39.7072556
20
7.6174847
40
18.7790246
50
273.0686516
51
279.8304377
0
ARC
8
0
10
39.688573
20
7.9180231
40
19.0801322
50
269.9967745
51
273.0763606
0
ARC
8
0
10
39.6831832
20
7.8011409
40
18.9632504
50
263.5273887
51
270.0130395
0
ARC
8
0
10
39.6465623
20
7.4705113
40
18.6306001
50
256.1936391
51
263.5246706
0
ARC
8
0
10
39.6130082
20
7.3290332
40
18.4852023
50
247.1614971
51
256.1899882
0
ARC
8
0
10
39.6275797
20
7.3583402
40
18.5178675
50
234.8886422
51
247.1551418
0
ARC
8
0
10
39.6723064
20
7.4253707
40
18.5984264
50
208.1259342
51
234.8946979
0
ARC
8
0
10
39.5707817
20
7.3652763
40
18.4805617
50
197.9183152
51
208.1100042
0
ARC
8
0
10
39.6253655
20
7.381248
40
18.537412
50
189.8331004
51
197.9133814
0
ARC
8
0
10
39.8635734
20
7.4216502
40
18.7790204
50
183.0686535
51
189.8304391
0
ARC
8
0
10
40.1641014
20
7.4403319
40
19.0801177
50
179.9967745
51
183.0763618
0
LINE
8
DEFAULT_255_2_778
10
21.0839838
20
7.441406
11
21.0839838
21
7.441406
0
ARC
8
0
10
35.389295
20
9.9675243
40
15.4462227
50
325.6024665
51
326.318723
0
ARC
8
0
10
36.379124
20
9.2898533
40
14.2466398
50
324.8733853
51
325.6024117
0
ARC
8
0
10
37.2722954
20
8.6615316
40
13.1546035
50
324.1316314
51
324.8732796
0
ARC
8
0
10
38.2603292
20
7.9455911
40
11.9344477
50
322.9937441
51
324.1376781
0
ARC
8
0
10
39.2914043
20
7.1685181
40
10.6433402
50
321.8238852
51
322.9934247
0
ARC
8
0
10
40.167728
20
6.4795813
40
9.5286307
50
320.6307624
51
321.8235512
0
ARC
8
0
10
40.9717835
20
5.8191915
40
8.4881407
50
319.2105953
51
320.6341745
0
ARC
8
0
10
41.7455247
20
5.1509639
40
7.4657889
50
317.5537569
51
319.2140912
0
ARC
8
0
10
42.4208072
20
4.5335073
40
6.5507702
50
315.8631287
51
317.5527167
0
ARC
8
0
10
42.9679663
20
4.0027634
40
5.7884892
50
314.1536918
51
315.8618973
0
ARC
8
0
10
43.4617284
20
3.4931778
40
5.0789273
50
311.9936994
51
314.1616844
0
ARC
8
0
10
43.9115815
20
2.993174
40
4.4063417
50
309.5994347
51
311.9961429
0
ARC
8
0
10
44.2841692
20
2.5426286
40
3.8216943
50
306.9954758
51
309.6009172
0
ARC
8
0
10
44.592414
20
2.1329854
40
3.3090322
50
303.9958719
51
307.0009079
0
ARC
8
0
10
44.8428851
20
1.7613294
40
2.8608538
50
300.6608066
51
303.9987786
0
ARC
8
0
10
45.0420436
20
1.4246261
40
2.4696592
50
296.6848119
51
300.6697861
0
ARC
8
0
10
45.1958442
20
1.1178136
40
2.1264561
50
291.9221508
51
296.6946375
0
ARC
8
0
10
45.303163
20
0.8503913
40
1.8383036
50
286.2114418
51
291.9309501
0
ARC
8
0
10
45.3660833
20
0.6334829
40
1.6124538
50
279.3381851
51
286.21637
0
ARC
8
0
10
45.391542
20
0.4784353
40
1.4553299
50
270.3445818
51
279.3396378
0
ARC
8
0
10
45.39309
20
0.4335472
40
1.4104339
50
270.0000825
51
270.2926653
0
ARC
8
0
10
45.4046896
20
0.5228919
40
1.4998235
50
242.5734888
51
269.5569516
0
ARC
8
0
10
45.6699427
20
1.0823418
40
2.1186876
50
234.7634796
51
243.1751855
0
ARC
8
0
10
46.0677848
20
1.6499511
40
2.8118353
50
228.8790768
51
234.815145
0
ARC
8
0
10
46.6870913
20
2.3614496
40
3.755111
50
224.3046584
51
228.9001213
0
ARC
8
0
10
47.6602799
20
3.312165
40
5.1156095
50
220.5985217
51
224.3115991
0
ARC
8
0
10
49.2495321
20
4.6753279
40
7.2093943
50
217.706608
51
220.6050404
0
ARC
8
0
10
52.1571451
20
6.9221496
40
10.8839584
50
215.4790417
51
217.7025564
0
ARC
8
0
10
59.0835133
20
11.8574196
40
19.3887491
50
214.0630393
51
215.4755796
0
ARC
8
0
10
93.3644308
20
35.0442452
40
60.7748599
50
213.6126459
51
214.0701751
0
LINE
8
0
10
42.7511833
20
1.4007796
11
42.750722
21
1.4014716
0
ARC
8
0
10
11.0414646
20
-19.5820512
40
38.0234827
50
33.4945004
51
34.6481017
0
ARC
8
0
10
31.4279242
20
-5.5224554
40
13.2590264
50
34.7524582
51
36.8188623
0
ARC
8
0
10
35.3332683
20
-2.6047325
40
8.3841126
50
36.850885
51
39.2639909
0
ARC
8
0
10
37.2233771
20
-1.0582426
40
5.9419537
50
39.2532669
51
42.4791519
0
ARC
8
0
10
38.4008992
20
0.0206809
40
4.3448833
50
42.4722341
51
46.5039485
0
ARC
8
0
10
39.1619142
20
0.8243514
40
3.2380731
50
46.4842514
51
51.7070754
0
ARC
8
0
10
39.662943
20
1.4615193
40
2.4275119
50
51.6691298
51
58.7895829
0
ARC
8
0
10
39.9705045
20
1.9735653
40
1.8302028
50
58.7180455
51
69.3691395
0
ARC
8
0
10
40.1042314
20
2.3350644
40
1.4447702
50
69.2810343
51
89.8487396
0
ARC
8
0
10
40.1092329
20
2.329094
40
1.450736
50
90.0468908
51
98.8285026
0
ARC
8
0
10
40.1323369
20
2.1810638
40
1.6005584
50
98.8324749
51
105.799487
0
ARC
8
0
10
40.191672
20
1.9705015
40
1.819321
50
105.7920342
51
111.4617424
0
ARC
8
0
10
40.2903823
20
1.71818
40
2.0902632
50
111.4493118
51
116.0278188
0
ARC
8
0
10
40.4289281
20
1.4337407
40
2.40665
50
116.0202143
51
119.9064978
0
ARC
8
0
10
40.6189726
20
1.1033619
40
2.7877893
50
119.9068242
51
123.5182491
0
ARC
8
0
10
40.874556
20
0.7170863
40
3.2509649
50
123.5143732
51
126.7299803
0
ARC
8
0
10
41.1904637
20
0.2929019
40
3.7798598
50
126.7225095
51
129.4456605
0
ARC
8
0
10
41.5521151
20
-0.1475262
40
4.3497442
50
129.4384537
51
131.7048681
0
ARC
8
0
10
41.9809695
20
-0.6285995
40
4.994219
50
131.7062414
51
133.9094562
0
ARC
8
0
10
42.5092471
20
-1.1776058
40
5.7561147
50
133.9078971
51
135.9325063
0
ARC
8
0
10
43.0999553
20
-1.7503665
40
6.5789089
50
135.9264103
51
137.5888386
0
ARC
8
0
10
43.7033807
20
-2.3024296
40
7.3967692
50
137.5840095
51
138.9380496
0
ARC
8
0
10
44.408775
20
-2.9161062
40
8.3317449
50
138.9424754
51
140.457258
0
ARC
8
0
10
45.2440888
20
-3.6065381
40
9.4154631
50
140.45348
51
141.7232296
0
ARC
8
0
10
46.1783155
20
-4.3434437
40
10.6053411
50
141.7244482
51
143.0030758
0
ARC
8
0
10
47.1312289
20
-5.0629911
40
11.7994059
50
142.9970421
51
143.8956317
0
ARC
8
0
10
48.0887726
20
-5.7609846
40
12.9843467
50
143.8969551
51
144.8503571
0
ARC
8
0
10
49.1079489
20
-6.4794172
40
14.2312891
50
144.8476464
51
145.5987256
0
ARC
8
0
10
50.1136641
20
-7.1681286
40
15.4502175
50
145.5985694
51
146.31277
0
LINE
8
DEFAULT_4_2_778
10
58.291014
20
43.4082019
11
63.2519514
21
43.4082019
0
LINE
8
DEFAULT_4_2_778
10
60.7714827
20
45.8886706
11
60.7714827
21
43.4082019
0
LINE
8
DEFAULT_4_2_778
10
16.1230464
20
43.4082019
11
21.0839838
21
43.4082019
0
LINE
8
DEFAULT_4_2_778
10
18.6035283
20
45.8886706
11
18.6035283
21
43.4082019
0
LINE
8
DEFAULT_4_2_778
10
37.2070434
20
43.4082019
11
42.1679808
21
43.4082019
0
LINE
8
DEFAULT_4_2_778
10
39.6874989
20
45.8886706
11
39.6874989
21
43.4082019
0
ENDSEC
0
EOF