0
SECTION
2
HEADER
0
ENDSEC
0
SECTION
2
TABLES
0
TABLE
2
LTYPE
0
LTYPE
72
65
70
64
2
CONTINUOUS
3
______
73
0
40
0
0
LTYPE
72
65
70
64
2
DASH_DEFAULT_255_2_778_064_085
3
______
73
2
40
2
49
-0.19921568073322585
49
0.2645833259738156
0
ENDTAB
0
TABLE
2
LAYER
0
LAYER
2
DEFAULT_255_2_778_064_085
70
0
62
255
6
DASH_DEFAULT_255_2_778_064_085
0
LAYER
2
DEFAULT_255_2_778
70
0
62
255
6
CONTINUOUS
0
LAYER
2
DEFAULT_4_2_778
70
0
62
4
6
CONTINUOUS
0
ENDTAB
0
ENDSEC
0
SECTION
2
ENTITIES
0
LINE
8
DEFAULT_255_2_778_064_085
10
65.1123161
20
24.1845564
11
8.0615364
21
24.1845564
0
LINE
8
DEFAULT_255_2_778
10
8.0615232
20
27.9052594
11
8.0615232
21
20.4638534
0
LINE
8
DEFAULT_255_2_778
10
68.8330059
20
52.7099462
11
68.8330059
21
35.3466655
0
LINE
8
DEFAULT_4_2_778
10
24.1845829
20
55.1904149
11
24.1845829
21
52.7099462
0
LINE
8
DEFAULT_4_2_778
10
46.508801
20
55.1904149
11
46.508801
21
52.7099462
0
LINE
8
DEFAULT_4_2_778
10
68.8330191
20
55.1904149
11
68.8330191
21
52.7099462
0
LINE
8
DEFAULT_255_2_778
10
46.508801
20
52.7099462
11
46.508801
21
35.3466655
0
LINE
8
DEFAULT_255_2_778
10
21.7041142
20
35.3466655
11
26.6650515
21
35.3466655
0
ARC
8
0
10
24.1921357
20
32.8698027
40
2.4880241
50
159.6503179
51
180.0830401
0
ARC
8
0
10
24.1789665
20
32.8714029
40
2.4751223
50
100.6655145
51
159.5790361
0
ARC
8
0
10
24.1832248
20
32.8338501
40
2.5128158
50
89.9690336
51
100.6024603
0
ARC
8
0
10
24.1881888
20
32.858644
40
2.4880241
50
69.6503179
51
90.0830401
0
ARC
8
0
10
24.1897889
20
32.8718132
40
2.4751223
50
10.6655145
51
69.5790361
0
ARC
8
0
10
24.1522362
20
32.8675549
40
2.5128158
50
359.9690336
51
10.6024603
0
ARC
8
0
10
24.1770301
20
32.8625908
40
2.4880241
50
339.6503179
51
0.0830401
0
ARC
8
0
10
24.1901992
20
32.8609907
40
2.4751223
50
280.6655145
51
339.5790361
0
ARC
8
0
10
24.185941
20
32.8985435
40
2.5128158
50
269.9690336
51
280.6024603
0
ARC
8
0
10
24.1809769
20
32.8737496
40
2.4880241
50
249.6503179
51
270.0830401
0
ARC
8
0
10
24.1793768
20
32.8605804
40
2.4751223
50
190.6655145
51
249.5790361
0
ARC
8
0
10
24.2169296
20
32.8648387
40
2.5128158
50
179.9690336
51
190.6024603
0
LINE
8
DEFAULT_255_2_778
10
21.7041142
20
32.8661968
11
21.7041142
21
32.8661968
0
LINE
8
DEFAULT_255_2_778
10
24.1845829
20
52.7099462
11
24.1845829
21
35.3466655
0
LINE
8
DEFAULT_4_2_778
10
21.7041142
20
52.7099462
11
26.6650515
21
52.7099462
0
LINE
8
DEFAULT_4_2_778
10
44.0283323
20
52.7099462
11
48.9892697
21
52.7099462
0
LINE
8
DEFAULT_4_2_778
10
66.3525504
20
52.7099462
11
71.3134878
21
52.7099462
0
LINE
8
DEFAULT_255_2_778
10
44.0283323
20
35.3466655
11
48.9892697
21
35.3466655
0
ARC
8
0
10
46.5163419
20
32.8698027
40
2.4880122
50
159.6502166
51
180.0830397
0
ARC
8
0
10
46.5031905
20
32.8713964
40
2.4751294
50
100.6655826
51
159.5789382
0
ARC
8
0
10
46.5074433
20
32.8338633
40
2.5128026
50
89.9690413
51
100.6024868
0
ARC
8
0
10
46.5124063
20
32.8586548
40
2.4880133
50
69.6502709
51
90.0830261
0
ARC
8
0
10
46.5140015
20
32.8718076
40
2.4751286
50
10.6656174
51
69.5790129
0
ARC
8
0
10
46.4764773
20
32.867556
40
2.5127928
50
359.9690089
51
10.6025339
0
ARC
8
0
10
46.5012601
20
32.8625909
40
2.4880122
50
339.6502166
51
0.0830397
0
ARC
8
0
10
46.5144115
20
32.8609971
40
2.4751294
50
280.6655826
51
339.5789382
0
ARC
8
0
10
46.5101587
20
32.8985303
40
2.5128026
50
269.9690413
51
280.6024868
0
ARC
8
0
10
46.5051957
20
32.8737388
40
2.4880133
50
249.6502709
51
270.0830261
0
ARC
8
0
10
46.5036005
20
32.8605859
40
2.4751286
50
190.6656174
51
249.5790129
0
ARC
8
0
10
46.5411247
20
32.8648376
40
2.5127928
50
179.9690089
51
190.6025339
0
LINE
8
DEFAULT_255_2_778
10
44.0283323
20
32.8661968
11
44.0283323
21
32.8661968
0
LINE
8
DEFAULT_255_2_778
10
66.3525504
20
35.3466655
11
71.3134878
21
35.3466655
0
ARC
8
0
10
68.8405601
20
32.8698027
40
2.4880122
50
159.6502166
51
180.0830397
0
ARC
8
0
10
68.8274086
20
32.8713964
40
2.4751294
50
100.6655826
51
159.5789382
0
ARC
8
0
10
68.8316614
20
32.8338633
40
2.5128026
50
89.9690413
51
100.6024868
0
ARC
8
0
10
68.8366245
20
32.8586548
40
2.4880133
50
69.6502709
51
90.0830261
0
ARC
8
0
10
68.8382196
20
32.8718076
40
2.4751286
50
10.6656174
51
69.5790129
0
ARC
8
0
10
68.8006955
20
32.867556
40
2.5127928
50
359.9690089
51
10.6025339
0
ARC
8
0
10
68.8254782
20
32.8625909
40
2.4880122
50
339.6502166
51
0.0830397
0
ARC
8
0
10
68.8386297
20
32.8609971
40
2.4751294
50
280.6655826
51
339.5789382
0
ARC
8
0
10
68.8343769
20
32.8985303
40
2.5128026
50
269.9690413
51
280.6024868
0
ARC
8
0
10
68.8294138
20
32.8737388
40
2.4880133
50
249.6502709
51
270.0830261
0
ARC
8
0
10
68.8278186
20
32.8605859
40
2.4751286
50
190.6656174
51
249.5790129
0
ARC
8
0
10
68.8653428
20
32.8648376
40
2.5127928
50
179.9690089
51
190.6025339
0
LINE
8
DEFAULT_255_2_778
10
66.3525504
20
32.8661968
11
66.3525504
21
32.8661968
0
LINE
8
DEFAULT_255_2_778
10
16.1228015
20
27.2845952
11
21.0845201
21
28.5242038
0
LINE
8
DEFAULT_255_2_778
10
21.0845201
20
28.5242038
11
24.1851453
21
17.9827569
0
LINE
8
DEFAULT_255_2_778
10
24.1851453
20
17.9827569
11
19.2246258
21
16.7434633
0
LINE
8
DEFAULT_255_2_778
10
19.2246258
20
16.7434633
11
16.1228015
21
27.2845952
0
LINE
8
DEFAULT_255_2_778
10
16.7431768
20
34.1064311
11
24.1845829
21
9.9218615
0
LINE
8
DEFAULT_255_2_778
10
24.1845829
20
9.9218615
11
24.1845829
21
-5.5810678
0
LINE
8
DEFAULT_255_2_778
10
38.4470171
20
27.2845952
11
43.4087276
21
28.5242038
0
LINE
8
DEFAULT_255_2_778
10
43.4087276
20
28.5242038
11
46.5093659
21
17.9827569
0
LINE
8
DEFAULT_255_2_778
10
46.5093659
20
17.9827569
11
41.5488404
21
16.7434633
0
LINE
8
DEFAULT_255_2_778
10
41.5488404
20
16.7434633
11
38.4470171
21
27.2845952
0
LINE
8
DEFAULT_255_2_778
10
39.067395
20
34.1064311
11
46.508801
21
9.9218615
0
LINE
8
DEFAULT_255_2_778
10
46.508801
20
9.9218615
11
46.508801
21
-5.5810678
0
LINE
8
DEFAULT_255_2_778
10
60.7712322
20
27.2845952
11
65.7329488
21
28.5242038
0
LINE
8
DEFAULT_255_2_778
10
65.7329488
20
28.5242038
11
68.8335871
21
17.9827569
0
LINE
8
DEFAULT_255_2_778
10
68.8335871
20
17.9827569
11
63.8730696
21
16.7434633
0
LINE
8
DEFAULT_255_2_778
10
63.8730696
20
16.7434633
11
60.7712322
21
27.2845952
0
LINE
8
DEFAULT_255_2_778
10
61.3916131
20
34.1064311
11
68.8330191
21
9.9218615
0
LINE
8
DEFAULT_255_2_778
10
68.8330191
20
9.9218615
11
68.8330191
21
-5.5810678
0
LINE
8
DEFAULT_4_2_778
10
66.3525504
20
-5.5810678
11
71.3134878
21
-5.5810678
0
LINE
8
DEFAULT_4_2_778
10
68.8330191
20
-5.5810678
11
68.8330191
21
-8.0615364
0
LINE
8
DEFAULT_4_2_778
10
44.0283323
20
-5.5810678
11
48.9892697
21
-5.5810678
0
LINE
8
DEFAULT_4_2_778
10
46.508801
20
-5.5810678
11
46.508801
21
-8.0615364
0
LINE
8
DEFAULT_4_2_778
10
21.7041142
20
-5.5810678
11
26.6650515
21
-5.5810678
0
LINE
8
DEFAULT_4_2_778
10
24.1845829
20
-5.5810678
11
24.1845829
21
-8.0615364
0
ENDSEC
0
EOF