0
SECTION
2
HEADER
0
ENDSEC
0
SECTION
2
TABLES
0
TABLE
2
LTYPE
0
LTYPE
72
65
70
64
2
CONTINUOUS
3
______
73
0
40
0
0
ENDTAB
0
TABLE
2
LAYER
0
LAYER
2
DEFAULT_255_2_778
70
0
62
255
6
CONTINUOUS
0
LAYER
2
DEFAULT_4_2_778
70
0
62
4
6
CONTINUOUS
0
ENDTAB
0
ENDSEC
0
SECTION
2
ENTITIES
0
LINE
8
DEFAULT_255_2_778
10
13.6425777
20
30.3857413
11
21.0839838
21
30.3857413
0
LINE
8
DEFAULT_255_2_778
10
21.0839838
20
30.3857413
11
21.0839838
21
11.7822262
0
LINE
8
DEFAULT_255_2_778
10
21.0839838
20
11.7822262
11
13.6425777
21
11.7822262
0
LINE
8
DEFAULT_255_2_778
10
13.6425777
20
11.7822262
11
13.6425777
21
30.3857413
0
LINE
8
DEFAULT_255_2_778
10
17.3632808
20
48.9892564
11
17.3632808
21
32.86621
0
LINE
8
DEFAULT_255_2_778
10
13.6425777
20
32.86621
11
21.0839838
21
32.86621
0
LINE
8
DEFAULT_255_2_778
10
17.3632808
20
30.3857413
11
17.3632808
21
11.7822262
0
LINE
8
DEFAULT_255_2_778
10
13.6425777
20
9.3017576
11
21.0839838
21
9.3017576
0
LINE
8
DEFAULT_255_2_778
10
17.3632808
20
9.3017576
11
17.3632808
21
-6.8212889
0
LINE
8
DEFAULT_255_2_778
10
35.9667959
20
30.3857413
11
43.4082019
21
30.3857413
0
LINE
8
DEFAULT_255_2_778
10
43.4082019
20
30.3857413
11
43.4082019
21
11.7822262
0
LINE
8
DEFAULT_255_2_778
10
43.4082019
20
11.7822262
11
35.9667959
21
11.7822262
0
LINE
8
DEFAULT_255_2_778
10
35.9667959
20
11.7822262
11
35.9667959
21
30.3857413
0
LINE
8
DEFAULT_255_2_778
10
39.6874989
20
48.9892564
11
39.6874989
21
32.86621
0
LINE
8
DEFAULT_255_2_778
10
35.9667959
20
32.86621
11
43.4082019
21
32.86621
0
LINE
8
DEFAULT_255_2_778
10
35.9667959
20
9.3017576
11
43.4082019
21
9.3017576
0
LINE
8
DEFAULT_255_2_778
10
39.6874989
20
9.3017576
11
39.6874989
21
-6.8212889
0
LINE
8
DEFAULT_255_2_778
10
58.291014
20
30.3857413
11
65.73242
21
30.3857413
0
LINE
8
DEFAULT_255_2_778
10
65.73242
20
30.3857413
11
65.73242
21
11.7822262
0
LINE
8
DEFAULT_255_2_778
10
65.73242
20
11.7822262
11
58.291014
21
11.7822262
0
LINE
8
DEFAULT_255_2_778
10
58.291014
20
11.7822262
11
58.291014
21
30.3857413
0
LINE
8
DEFAULT_255_2_778
10
62.011717
20
48.9892564
11
62.011717
21
32.86621
0
LINE
8
DEFAULT_255_2_778
10
58.291014
20
32.86621
11
65.73242
21
32.86621
0
LINE
8
DEFAULT_255_2_778
10
58.291014
20
9.3017576
11
65.73242
21
9.3017576
0
LINE
8
DEFAULT_255_2_778
10
62.011717
20
9.3017576
11
62.011717
21
-6.8212889
0
LINE
8
DEFAULT_4_2_778
10
17.3632808
20
51.4697119
11
17.3632808
21
48.9892432
0
LINE
8
DEFAULT_4_2_778
10
39.6874989
20
51.4697119
11
39.6874989
21
48.9892432
0
LINE
8
DEFAULT_4_2_778
10
62.011717
20
51.4697119
11
62.011717
21
48.9892432
0
LINE
8
DEFAULT_4_2_778
10
14.8828121
20
48.9892432
11
19.8437494
21
48.9892432
0
LINE
8
DEFAULT_4_2_778
10
37.2070302
20
48.9892564
11
42.1679676
21
48.9892564
0
LINE
8
DEFAULT_4_2_778
10
59.5312483
20
48.9892564
11
64.4921857
21
48.9892564
0
LINE
8
DEFAULT_4_2_778
10
59.5312483
20
-6.8212889
11
64.4921857
21
-6.8212889
0
LINE
8
DEFAULT_4_2_778
10
62.011717
20
-6.8213021
11
62.011717
21
-9.3017708
0
LINE
8
DEFAULT_4_2_778
10
37.2070302
20
-6.8213021
11
42.1679676
21
-6.8213021
0
LINE
8
DEFAULT_4_2_778
10
39.6874989
20
-6.8213021
11
39.6874989
21
-9.3017708
0
LINE
8
DEFAULT_4_2_778
10
14.8828121
20
-6.8213021
11
19.8437494
21
-6.8213021
0
LINE
8
DEFAULT_4_2_778
10
17.3632808
20
-6.8213021
11
17.3632808
21
-9.3017708
0
LINE
8
DEFAULT_255_2_778
10
39.6874989
20
30.3857413
11
39.6874989
21
11.7822262
0
LINE
8
DEFAULT_255_2_778
10
62.011717
20
30.3857413
11
62.011717
21
11.7822262
0
ENDSEC
0
EOF