0
SECTION
2
HEADER
0
ENDSEC
0
SECTION
2
TABLES
0
TABLE
2
LTYPE
0
LTYPE
72
65
70
64
2
CONTINUOUS
3
______
73
0
40
0
0
LTYPE
72
65
70
64
2
DASH_DEFAULT_255_2_778_064_085
3
______
73
2
40
2
49
-0.19921568073322585
49
0.2645833259738156
0
ENDTAB
0
TABLE
2
LAYER
0
LAYER
2
DEFAULT_255_2_778
70
0
62
255
6
CONTINUOUS
0
LAYER
2
DEFAULT_255_2_778_064_085
70
0
62
255
6
DASH_DEFAULT_255_2_778_064_085
0
LAYER
2
DEFAULT_4_2_778
70
0
62
4
6
CONTINUOUS
0
ENDTAB
0
ENDSEC
0
SECTION
2
ENTITIES
0
LINE
8
DEFAULT_255_2_778
10
29.840197
20
53.3300766
11
29.840197
21
34.7265615
0
LINE
8
DEFAULT_255_2_778
10
29.840197
20
-6.2011717
11
29.840197
21
9.9218747
0
LINE
8
DEFAULT_255_2_778
10
29.840197
20
9.9218747
11
23.6390253
21
34.7265615
0
LINE
8
DEFAULT_255_2_778
10
54.6448838
20
53.3300766
11
54.6448838
21
34.7265615
0
LINE
8
DEFAULT_255_2_778
10
54.6448838
20
-6.2011717
11
54.6448838
21
9.9218747
0
LINE
8
DEFAULT_255_2_778
10
54.6448838
20
9.9218747
11
48.4437121
21
34.7265615
0
LINE
8
DEFAULT_255_2_778_064_085
10
51.5442979
20
22.3242181
11
26.7396111
21
22.3242181
0
LINE
8
DEFAULT_255_2_778
10
27.3597151
20
34.7265615
11
32.3206524
21
34.7265615
0
ARC
8
0
10
29.8477366
20
32.2496988
40
2.4880241
50
159.6503179
51
180.0830401
0
ARC
8
0
10
29.8345674
20
32.2512989
40
2.4751223
50
100.6655145
51
159.5790361
0
ARC
8
0
10
29.8388257
20
32.2137462
40
2.5128158
50
89.9690336
51
100.6024603
0
ARC
8
0
10
29.8437897
20
32.2385401
40
2.4880241
50
69.6503179
51
90.0830401
0
ARC
8
0
10
29.8453898
20
32.2517092
40
2.4751223
50
10.6655145
51
69.5790361
0
ARC
8
0
10
29.8078371
20
32.2474509
40
2.5128158
50
359.9690336
51
10.6024603
0
ARC
8
0
10
29.832631
20
32.2424869
40
2.4880241
50
339.6503179
51
0.0830401
0
ARC
8
0
10
29.8458001
20
32.2408868
40
2.4751223
50
280.6655145
51
339.5790361
0
ARC
8
0
10
29.8415418
20
32.2784395
40
2.5128158
50
269.9690336
51
280.6024603
0
ARC
8
0
10
29.8365778
20
32.2536457
40
2.4880241
50
249.6503179
51
270.0830401
0
ARC
8
0
10
29.8349777
20
32.2404765
40
2.4751223
50
190.6655145
51
249.5790361
0
ARC
8
0
10
29.8725304
20
32.2447348
40
2.5128158
50
179.9690336
51
190.6024603
0
LINE
8
DEFAULT_255_2_778
10
27.3597151
20
32.2460929
11
27.3597151
21
32.2460929
0
LINE
8
DEFAULT_255_2_778
10
22.249655
20
24.8342797
11
25.8598391
21
25.7343984
0
LINE
8
DEFAULT_255_2_778
10
25.8598391
20
25.7343984
11
27.3600361
21
19.7174249
0
LINE
8
DEFAULT_255_2_778
10
27.3600361
20
19.7174249
11
23.749852
21
18.8173062
0
LINE
8
DEFAULT_255_2_778
10
23.749852
20
18.8173062
11
22.249655
21
24.8342797
0
LINE
8
DEFAULT_255_2_778
10
47.0543408
20
24.8342797
11
50.6645168
21
25.7343984
0
LINE
8
DEFAULT_255_2_778
10
50.6645168
20
25.7343984
11
52.164724
21
19.7174249
0
LINE
8
DEFAULT_255_2_778
10
52.164724
20
19.7174249
11
48.5545439
21
18.8173062
0
LINE
8
DEFAULT_255_2_778
10
48.5545439
20
18.8173062
11
47.0543408
21
24.8342797
0
LINE
8
DEFAULT_4_2_778
10
29.8401838
20
53.3300766
11
29.8401838
21
50.849608
0
LINE
8
DEFAULT_4_2_778
10
54.6448706
20
53.3300766
11
54.6448706
21
50.849608
0
LINE
8
DEFAULT_4_2_778
10
27.3597151
20
50.849608
11
32.3206524
21
50.849608
0
LINE
8
DEFAULT_4_2_778
10
52.1644019
20
50.849608
11
57.1253392
21
50.849608
0
LINE
8
DEFAULT_4_2_778
10
52.1644019
20
-6.2011717
11
57.1253392
21
-6.2011717
0
LINE
8
DEFAULT_4_2_778
10
54.6448706
20
-6.2011717
11
54.6448706
21
-8.6816404
0
LINE
8
DEFAULT_4_2_778
10
27.3597151
20
-6.2011717
11
32.3206524
21
-6.2011717
0
LINE
8
DEFAULT_4_2_778
10
29.8401838
20
-6.2011717
11
29.8401838
21
-8.6816404
0
ARC
8
0
10
54.6524115
20
32.2496988
40
2.4880122
50
159.6502166
51
180.0830397
0
ARC
8
0
10
54.63926
20
32.2512925
40
2.4751294
50
100.6655826
51
159.5789382
0
ARC
8
0
10
54.6435128
20
32.2137594
40
2.5128026
50
89.9690413
51
100.6024868
0
ARC
8
0
10
54.6484759
20
32.2385508
40
2.4880133
50
69.6502709
51
90.0830261
0
ARC
8
0
10
54.6500711
20
32.2517037
40
2.4751286
50
10.6656174
51
69.5790129
0
ARC
8
0
10
54.6125469
20
32.247452
40
2.5127928
50
359.9690089
51
10.6025339
0
ARC
8
0
10
54.6373296
20
32.2424869
40
2.4880122
50
339.6502166
51
0.0830397
0
ARC
8
0
10
54.6504811
20
32.2408932
40
2.4751294
50
280.6655826
51
339.5789382
0
ARC
8
0
10
54.6462283
20
32.2784263
40
2.5128026
50
269.9690413
51
280.6024868
0
ARC
8
0
10
54.6412652
20
32.2536349
40
2.4880133
50
249.6502709
51
270.0830261
0
ARC
8
0
10
54.6396701
20
32.240482
40
2.4751286
50
190.6656174
51
249.5790129
0
ARC
8
0
10
54.6771942
20
32.2447337
40
2.5127928
50
179.9690089
51
190.6025339
0
LINE
8
DEFAULT_255_2_778
10
52.1644019
20
32.2460929
11
52.1644019
21
32.2460929
0
LINE
8
DEFAULT_255_2_778
10
52.1644019
20
34.7265615
11
57.1253392
21
34.7265615
0
ENDSEC
0
EOF