0
SECTION
2
HEADER
0
ENDSEC
0
SECTION
2
TABLES
0
TABLE
2
LTYPE
0
LTYPE
72
65
70
64
2
CONTINUOUS
3
______
73
0
40
0
0
LTYPE
72
65
70
64
2
DASH_DEFAULT_255_2_778_064_085
3
______
73
2
40
2
49
-0.19921568073322585
49
0.2645833259738156
0
ENDTAB
0
TABLE
2
LAYER
0
LAYER
2
DEFAULT_255_2_778_064_085
70
0
62
255
6
DASH_DEFAULT_255_2_778_064_085
0
LAYER
2
DEFAULT_255_2_778
70
0
62
255
6
CONTINUOUS
0
LAYER
2
DEFAULT_4_2_778
70
0
62
4
6
CONTINUOUS
0
ENDTAB
0
ENDSEC
0
SECTION
2
ENTITIES
0
LINE
8
DEFAULT_255_2_778_064_085
10
53.3300899
20
22.3242181
11
19.8437627
21
22.3242181
0
LINE
8
DEFAULT_255_2_778
10
24.5456053
20
27.5116032
11
30.5354749
21
29.1165803
0
LINE
8
DEFAULT_255_2_778
10
30.5354749
20
29.1165803
11
33.7454351
21
17.136833
0
LINE
8
DEFAULT_255_2_778
10
33.7454351
20
17.136833
11
27.7555655
21
15.5318559
0
LINE
8
DEFAULT_255_2_778
10
27.7555655
20
15.5318559
11
24.5456053
21
27.5116032
0
LINE
8
DEFAULT_255_2_778
10
32.2460929
20
50.849608
11
32.2460929
21
34.7265615
0
LINE
8
DEFAULT_255_2_778
10
26.0449212
20
34.7265615
11
32.2460929
21
9.9218747
0
LINE
8
DEFAULT_255_2_778
10
32.2460929
20
9.9218747
11
32.2460929
21
-6.2011717
0
LINE
8
DEFAULT_255_2_778
10
19.8437494
20
26.0449212
11
19.8437494
21
18.6035151
0
LINE
8
DEFAULT_255_2_778
10
49.3502901
20
27.5116032
11
55.3401698
21
29.1165803
0
LINE
8
DEFAULT_255_2_778
10
55.3401698
20
29.1165803
11
58.550124
21
17.136833
0
LINE
8
DEFAULT_255_2_778
10
58.550124
20
17.136833
11
52.5602604
21
15.5318559
0
LINE
8
DEFAULT_255_2_778
10
52.5602604
20
15.5318559
11
49.3502901
21
27.5116032
0
LINE
8
DEFAULT_255_2_778
10
57.0507929
20
50.849608
11
57.0507929
21
34.7265615
0
LINE
8
DEFAULT_255_2_778
10
50.8496212
20
34.7265615
11
57.0507929
21
9.9218747
0
LINE
8
DEFAULT_255_2_778
10
57.0507929
20
9.9218747
11
57.0507929
21
-6.2011717
0
LINE
8
DEFAULT_255_2_778
10
29.7656242
20
34.7265615
11
34.7265615
21
34.7265615
0
LINE
8
DEFAULT_255_2_778
10
54.570311
20
34.7265615
11
59.5312483
21
34.7265615
0
LINE
8
DEFAULT_4_2_778
10
32.2460929
20
53.3300766
11
32.2460929
21
50.849608
0
LINE
8
DEFAULT_4_2_778
10
57.0507797
20
53.3300766
11
57.0507797
21
50.849608
0
LINE
8
DEFAULT_4_2_778
10
29.7656242
20
50.849608
11
34.7265615
21
50.849608
0
LINE
8
DEFAULT_4_2_778
10
54.570311
20
50.849608
11
59.5312483
21
50.849608
0
LINE
8
DEFAULT_4_2_778
10
54.570311
20
-6.2011717
11
59.5312483
21
-6.2011717
0
LINE
8
DEFAULT_4_2_778
10
57.0507797
20
-6.2011717
11
57.0507797
21
-8.6816404
0
LINE
8
DEFAULT_4_2_778
10
29.7656242
20
-6.2011717
11
34.7265615
21
-6.2011717
0
LINE
8
DEFAULT_4_2_778
10
32.2460929
20
-6.2011717
11
32.2460929
21
-8.6816404
0
ENDSEC
0
EOF