0
SECTION
2
HEADER
0
ENDSEC
0
SECTION
2
TABLES
0
TABLE
2
LTYPE
0
LTYPE
72
65
70
64
2
CONTINUOUS
3
______
73
0
40
0
0
ENDTAB
0
TABLE
2
LAYER
0
LAYER
2
DEFAULT_255_2_778
70
0
62
255
6
CONTINUOUS
0
LAYER
2
DEFAULT_4_2_778
70
0
62
4
6
CONTINUOUS
0
ENDTAB
0
ENDSEC
0
SECTION
2
ENTITIES
0
LINE
8
DEFAULT_255_2_778
10
50.8496212
20
35.9667826
11
50.8496212
21
32.2460796
0
LINE
8
DEFAULT_255_2_778
10
50.8496212
20
32.2460796
11
57.0507929
21
32.2460796
0
LINE
8
DEFAULT_255_2_778
10
57.0507929
20
32.2460796
11
57.0507929
21
26.0449079
0
LINE
8
DEFAULT_255_2_778
10
57.0507929
20
26.0449079
11
50.8496212
21
26.0449079
0
LINE
8
DEFAULT_255_2_778
10
50.8496212
20
26.0449079
11
50.8496212
21
22.3242049
0
LINE
8
DEFAULT_255_2_778
10
16.1230464
20
35.9667826
11
63.2519514
21
35.9667826
0
LINE
8
DEFAULT_255_2_778
10
63.2519514
20
35.9667826
11
63.2519514
21
22.3242049
0
LINE
8
DEFAULT_255_2_778
10
63.2519514
20
22.3242049
11
16.1230464
21
22.3242049
0
LINE
8
DEFAULT_255_2_778
10
16.1230464
20
22.3242049
11
16.1230464
21
35.9667826
0
LINE
8
DEFAULT_255_2_778
10
26.0449344
20
35.9667826
11
26.0449344
21
32.2460796
0
LINE
8
DEFAULT_255_2_778
10
26.0449344
20
32.2460796
11
32.2461061
21
32.2460796
0
LINE
8
DEFAULT_255_2_778
10
32.2461061
20
32.2460796
11
32.2461061
21
26.0449079
0
LINE
8
DEFAULT_255_2_778
10
32.2461061
20
26.0449079
11
26.0449344
21
26.0449079
0
LINE
8
DEFAULT_255_2_778
10
26.0449344
20
26.0449079
11
26.0449344
21
22.3242049
0
LINE
8
DEFAULT_255_2_778
10
16.1230464
20
22.3242049
11
63.2519514
21
22.3242049
0
LINE
8
DEFAULT_255_2_778
10
63.2519514
20
22.3242049
11
63.2519514
21
8.6816272
0
LINE
8
DEFAULT_255_2_778
10
63.2519514
20
8.6816272
11
16.1230464
21
8.6816272
0
LINE
8
DEFAULT_255_2_778
10
16.1230464
20
8.6816272
11
16.1230464
21
22.3242049
0
LINE
8
DEFAULT_255_2_778
10
49.4716997
20
18.6035151
11
47.6361488
21
18.6035151
0
LINE
8
DEFAULT_255_2_778
10
48.5527046
20
18.6035019
11
47.6349231
21
12.4023302
0
LINE
8
DEFAULT_255_2_778
10
48.5539375
20
12.4023434
11
46.7183907
21
12.4023434
0
LINE
8
DEFAULT_255_2_778
10
51.3084922
20
18.6035019
11
54.9833082
21
15.502916
0
LINE
8
DEFAULT_255_2_778
10
54.9833082
20
15.502916
11
51.3084922
21
12.4023302
0
LINE
8
DEFAULT_255_2_778
10
25.081267
20
18.6035151
11
23.2457242
21
18.6035151
0
LINE
8
DEFAULT_255_2_778
10
24.1610029
20
18.6035019
11
23.2432275
21
12.4023302
0
LINE
8
DEFAULT_255_2_778
10
24.1622368
20
12.4023434
11
22.326694
21
12.4023434
0
LINE
8
DEFAULT_255_2_778
10
26.9167945
20
18.6035019
11
30.5916085
21
15.502916
0
LINE
8
DEFAULT_255_2_778
10
30.5916085
20
15.502916
11
26.9167945
21
12.4023302
0
LINE
8
DEFAULT_255_2_778
10
50.849608
20
50.849608
11
50.849608
21
35.9667959
0
LINE
8
DEFAULT_255_2_778
10
26.0449212
20
50.849608
11
26.0449212
21
35.9667959
0
LINE
8
DEFAULT_255_2_778
10
26.0449212
20
8.6816404
11
26.0449212
21
-6.2011717
0
LINE
8
DEFAULT_255_2_778
10
50.849608
20
8.6816404
11
50.849608
21
-6.2011717
0
LINE
8
DEFAULT_4_2_778
10
53.3300766
20
-6.2011717
11
48.3691393
21
-6.2011717
0
LINE
8
DEFAULT_4_2_778
10
50.849608
20
-6.2011717
11
50.849608
21
-8.6816404
0
LINE
8
DEFAULT_4_2_778
10
53.3300766
20
50.849608
11
48.3691393
21
50.849608
0
LINE
8
DEFAULT_4_2_778
10
50.849608
20
53.3300766
11
50.849608
21
50.849608
0
LINE
8
DEFAULT_4_2_778
10
28.5253898
20
-6.2011717
11
23.5644525
21
-6.2011717
0
LINE
8
DEFAULT_4_2_778
10
26.0449212
20
-6.2011717
11
26.0449212
21
-8.6816404
0
LINE
8
DEFAULT_4_2_778
10
28.5253898
20
50.849608
11
23.5644525
21
50.849608
0
LINE
8
DEFAULT_4_2_778
10
26.0449212
20
53.3300766
11
26.0449212
21
50.849608
0
ENDSEC
0
EOF