0
SECTION
2
HEADER
0
ENDSEC
0
SECTION
2
TABLES
0
TABLE
2
LTYPE
0
LTYPE
72
65
70
64
2
CONTINUOUS
3
______
73
0
40
0
0
ENDTAB
0
TABLE
2
LAYER
0
LAYER
2
DEFAULT_255_2_778
70
0
62
255
6
CONTINUOUS
0
LAYER
2
DEFAULT_4_2_778
70
0
62
4
6
CONTINUOUS
0
ENDTAB
0
ENDSEC
0
SECTION
2
ENTITIES
0
LINE
8
DEFAULT_255_2_778
10
41.5478504
20
50.849608
11
41.5478504
21
34.7265615
0
LINE
8
DEFAULT_255_2_778
10
41.5478504
20
-6.2011717
11
41.5478504
21
9.9218747
0
LINE
8
DEFAULT_255_2_778
10
41.5478504
20
9.9218747
11
35.3466787
21
34.7265615
0
LINE
8
DEFAULT_255_2_778
10
39.067395
20
34.7265615
11
44.0283323
21
34.7265615
0
ARC
8
0
10
41.5554105
20
32.2496993
40
2.4880182
50
159.65028
51
180.0830526
0
ARC
8
0
10
41.5422491
20
32.2512969
40
2.4751246
50
100.6655354
51
159.5790041
0
ARC
8
0
10
41.5465057
20
32.2137502
40
2.5128117
50
89.9690373
51
100.6024688
0
ARC
8
0
10
41.551469
20
32.2385508
40
2.4880133
50
69.6502709
51
90.0830261
0
ARC
8
0
10
41.5530641
20
32.2517037
40
2.4751286
50
10.6656174
51
69.5790129
0
ARC
8
0
10
41.51554
20
32.247452
40
2.5127928
50
359.9690089
51
10.6025339
0
ARC
8
0
10
41.5403227
20
32.2424869
40
2.4880122
50
339.6502166
51
0.0830397
0
ARC
8
0
10
41.5534742
20
32.2408932
40
2.4751294
50
280.6655826
51
339.5789382
0
ARC
8
0
10
41.5492214
20
32.2784263
40
2.5128026
50
269.9690413
51
280.6024868
0
ARC
8
0
10
41.5442579
20
32.2536417
40
2.4880201
50
249.6502992
51
270.0830355
0
ARC
8
0
10
41.5426597
20
32.2404784
40
2.4751246
50
190.6655505
51
249.5790236
0
ARC
8
0
10
41.5802104
20
32.2447348
40
2.5128158
50
179.9690336
51
190.6024604
0
LINE
8
DEFAULT_255_2_778
10
39.067395
20
32.2460929
11
39.067395
21
32.2460929
0
LINE
8
DEFAULT_4_2_778
10
41.5478636
20
53.3300766
11
41.5478636
21
50.849608
0
LINE
8
DEFAULT_4_2_778
10
39.067395
20
50.849608
11
44.0283323
21
50.849608
0
LINE
8
DEFAULT_4_2_778
10
39.067395
20
-6.2011717
11
44.0283323
21
-6.2011717
0
LINE
8
DEFAULT_4_2_778
10
41.5478636
20
-6.2011717
11
41.5478636
21
-8.6816404
0
ENDSEC
0
EOF