0
SECTION
2
HEADER
0
ENDSEC
0
SECTION
2
TABLES
0
TABLE
2
LTYPE
0
LTYPE
72
65
70
64
2
CONTINUOUS
3
______
73
0
40
0
0
LTYPE
72
65
70
64
2
DASH_DEFAULT_255_2_778_064_085
3
______
73
2
40
2
49
-0.19921568073322585
49
0.2645833259738156
0
ENDTAB
0
TABLE
2
LAYER
0
LAYER
2
DEFAULT_255_2_778
70
0
62
255
6
CONTINUOUS
0
LAYER
2
DEFAULT_255_2_778_064_085
70
0
62
255
6
DASH_DEFAULT_255_2_778_064_085
0
LAYER
2
DEFAULT_4_2_778
70
0
62
4
6
CONTINUOUS
0
ENDTAB
0
ENDSEC
0
SECTION
2
ENTITIES
0
LINE
8
DEFAULT_255_2_778
10
28.5253898
20
29.7656242
11
28.5253898
21
39.6874989
0
LINE
8
DEFAULT_255_2_778
10
28.5253898
20
39.6874989
11
38.4472646
21
39.6874989
0
LINE
8
DEFAULT_255_2_778
10
38.4472646
20
39.6874989
11
38.4472646
21
29.7656242
0
LINE
8
DEFAULT_255_2_778
10
38.4472646
20
29.7656242
11
28.5253898
21
29.7656242
0
LINE
8
DEFAULT_255_2_778
10
33.4863272
20
39.6874989
11
33.4863272
21
29.7656242
0
LINE
8
DEFAULT_255_2_778
10
28.5253898
20
34.7265615
11
38.4472646
21
34.7265615
0
LINE
8
DEFAULT_255_2_778
10
42.1679676
20
42.1679676
11
47.1289049
21
27.2851555
0
LINE
8
DEFAULT_255_2_778
10
47.1289049
20
27.2851555
11
47.1289049
21
22.3242181
0
LINE
8
DEFAULT_255_2_778_064_085
10
38.4472778
20
34.7265615
11
44.6484495
21
34.7265615
0
LINE
8
DEFAULT_255_2_778_064_085
10
23.5644525
20
34.7265615
11
28.5253898
21
34.7265615
0
LINE
8
DEFAULT_255_2_778
10
47.1289049
20
50.8495947
11
47.1289049
21
42.1679543
0
LINE
8
DEFAULT_255_2_778
10
23.5644525
20
38.4472646
11
23.5644525
21
31.0058585
0
LINE
8
DEFAULT_255_2_778_064_085
10
33.4863272
20
29.7656242
11
33.4863272
21
17.3632808
0
LINE
8
DEFAULT_255_2_778_064_085
10
33.4863272
20
17.3632808
11
40.9277332
21
17.3632808
0
LINE
8
DEFAULT_4_2_778
10
44.6484363
20
50.849608
11
49.6093736
21
50.849608
0
LINE
8
DEFAULT_4_2_778
10
47.1289049
20
53.3300766
11
47.1289049
21
50.849608
0
LINE
8
DEFAULT_255_2_778
10
47.1289049
20
4.9609241
11
47.1289049
21
-6.2011849
0
LINE
8
DEFAULT_4_2_778
10
44.6484363
20
-6.2011717
11
49.6093736
21
-6.2011717
0
LINE
8
DEFAULT_4_2_778
10
47.1289049
20
-6.2011717
11
47.1289049
21
-8.6816404
0
LINE
8
DEFAULT_255_2_778_064_085
10
33.4863272
20
16.743157
11
33.4863272
21
9.9218681
0
LINE
8
DEFAULT_255_2_778_064_085
10
33.4863272
20
9.9218681
11
40.9277332
21
9.9218681
0
LINE
8
DEFAULT_255_2_778
10
40.9277332
20
22.3242049
11
55.8105453
21
22.3242049
0
LINE
8
DEFAULT_255_2_778
10
55.8105453
20
22.3242049
11
55.8105453
21
13.6425645
0
LINE
8
DEFAULT_255_2_778
10
55.8105453
20
13.6425645
11
40.9277332
21
13.6425645
0
LINE
8
DEFAULT_255_2_778
10
40.9277332
20
13.6425645
11
40.9277332
21
22.3242049
0
LINE
8
DEFAULT_255_2_778
10
40.9277332
20
13.6425645
11
55.8105453
21
13.6425645
0
LINE
8
DEFAULT_255_2_778
10
55.8105453
20
13.6425645
11
55.8105453
21
4.9609241
0
LINE
8
DEFAULT_255_2_778
10
55.8105453
20
4.9609241
11
40.9277332
21
4.9609241
0
LINE
8
DEFAULT_255_2_778
10
40.9277332
20
4.9609241
11
40.9277332
21
13.6425645
0
LINE
8
DEFAULT_255_2_778
10
46.7159089
20
11.1608655
11
45.3392448
21
11.1608655
0
LINE
8
DEFAULT_255_2_778
10
46.0263395
20
11.1620958
11
45.33677
21
7.4413928
0
LINE
8
DEFAULT_255_2_778
10
46.0275669
20
7.4401625
11
44.6509068
21
7.4401625
0
LINE
8
DEFAULT_255_2_778
10
48.0938073
20
11.1620958
11
50.8496145
21
9.3017443
0
LINE
8
DEFAULT_255_2_778
10
50.8496145
20
9.3017443
11
48.0938073
21
7.4413928
0
LINE
8
DEFAULT_255_2_778
10
47.1289182
20
22.3242049
11
47.1289182
21
19.8437362
0
LINE
8
DEFAULT_255_2_778
10
47.1289182
20
19.8437362
11
50.8496212
21
19.8437362
0
LINE
8
DEFAULT_255_2_778
10
50.8496212
20
19.8437362
11
50.8496212
21
16.1230332
0
LINE
8
DEFAULT_255_2_778
10
50.8496212
20
16.1230332
11
47.1289182
21
16.1230332
0
LINE
8
DEFAULT_255_2_778
10
47.1289182
20
16.1230332
11
47.1289182
21
13.6425645
0
ENDSEC
0
EOF