0
SECTION
2
HEADER
0
ENDSEC
0
SECTION
2
TABLES
0
TABLE
2
LTYPE
0
LTYPE
72
65
70
64
2
CONTINUOUS
3
______
73
0
40
0
0
LTYPE
72
65
70
64
2
DASH_DEFAULT_255_2_778_064_085
3
______
73
2
40
2
49
-0.19921568073322585
49
0.2645833259738156
0
ENDTAB
0
TABLE
2
LAYER
0
LAYER
2
DEFAULT_255_2_778_064_085
70
0
62
255
6
DASH_DEFAULT_255_2_778_064_085
0
LAYER
2
DEFAULT_255_2_778
70
0
62
255
6
CONTINUOUS
0
LAYER
2
DEFAULT_4_2_778
70
0
62
4
6
CONTINUOUS
0
ENDTAB
0
ENDSEC
0
SECTION
2
ENTITIES
0
LINE
8
DEFAULT_255_2_778_064_085
10
40.9277465
20
22.3242181
11
32.2461061
21
22.3242181
0
LINE
8
DEFAULT_255_2_778
10
36.9479477
20
27.5116032
11
42.9378173
21
29.1165803
0
LINE
8
DEFAULT_255_2_778
10
42.9378173
20
29.1165803
11
46.1477796
21
17.136833
0
LINE
8
DEFAULT_255_2_778
10
46.1477796
20
17.136833
11
40.1579079
21
15.5318559
0
LINE
8
DEFAULT_255_2_778
10
40.1579079
20
15.5318559
11
36.9479477
21
27.5116032
0
LINE
8
DEFAULT_255_2_778
10
44.6484495
20
50.849608
11
44.6484495
21
34.7265615
0
LINE
8
DEFAULT_255_2_778
10
38.4472778
20
34.7265615
11
44.6484495
21
9.9218747
0
LINE
8
DEFAULT_255_2_778
10
44.6484495
20
9.9218747
11
44.6484495
21
-6.2011717
0
LINE
8
DEFAULT_255_2_778
10
32.2460929
20
26.0449079
11
32.2460929
21
18.6035019
0
LINE
8
DEFAULT_255_2_778
10
42.1679676
20
34.7265483
11
47.1289049
21
34.7265483
0
LINE
8
DEFAULT_4_2_778
10
44.6484363
20
53.3300766
11
44.6484363
21
50.849608
0
LINE
8
DEFAULT_4_2_778
10
42.1679676
20
50.849608
11
47.1289049
21
50.849608
0
LINE
8
DEFAULT_4_2_778
10
42.1679676
20
-6.2011717
11
47.1289049
21
-6.2011717
0
LINE
8
DEFAULT_4_2_778
10
44.6484363
20
-6.2011717
11
44.6484363
21
-8.6816404
0
ENDSEC
0
EOF