0
SECTION
2
HEADER
0
ENDSEC
0
SECTION
2
TABLES
0
TABLE
2
LTYPE
0
LTYPE
72
65
70
64
2
CONTINUOUS
3
______
73
0
40
0
0
ENDTAB
0
TABLE
2
LAYER
0
LAYER
2
DEFAULT_255_2_778
70
0
62
255
6
CONTINUOUS
0
LAYER
2
DEFAULT_4_2_778
70
0
62
4
6
CONTINUOUS
0
ENDTAB
0
ENDSEC
0
SECTION
2
ENTITIES
0
LINE
8
DEFAULT_255_2_778
10
38.4472778
20
35.9667826
11
38.4472778
21
32.2460796
0
LINE
8
DEFAULT_255_2_778
10
38.4472778
20
32.2460796
11
44.6484495
21
32.2460796
0
LINE
8
DEFAULT_255_2_778
10
44.6484495
20
32.2460796
11
44.6484495
21
26.0449079
0
LINE
8
DEFAULT_255_2_778
10
44.6484495
20
26.0449079
11
38.4472778
21
26.0449079
0
LINE
8
DEFAULT_255_2_778
10
38.4472778
20
26.0449079
11
38.4472778
21
22.3242049
0
LINE
8
DEFAULT_255_2_778
10
29.7656242
20
35.9667826
11
49.6093736
21
35.9667826
0
LINE
8
DEFAULT_255_2_778
10
49.6093736
20
35.9667826
11
49.6093736
21
22.3242049
0
LINE
8
DEFAULT_255_2_778
10
49.6093736
20
22.3242049
11
29.7656242
21
22.3242049
0
LINE
8
DEFAULT_255_2_778
10
29.7656242
20
22.3242049
11
29.7656242
21
35.9667826
0
LINE
8
DEFAULT_255_2_778
10
29.7656242
20
22.3242049
11
49.6093736
21
22.3242049
0
LINE
8
DEFAULT_255_2_778
10
49.6093736
20
22.3242049
11
49.6093736
21
8.6816272
0
LINE
8
DEFAULT_255_2_778
10
49.6093736
20
8.6816272
11
29.7656242
21
8.6816272
0
LINE
8
DEFAULT_255_2_778
10
29.7656242
20
8.6816272
11
29.7656242
21
22.3242049
0
LINE
8
DEFAULT_255_2_778
10
38.3095866
20
18.6035151
11
36.4740438
21
18.6035151
0
LINE
8
DEFAULT_255_2_778
10
37.3905895
20
18.6035019
11
36.4728201
21
12.4023302
0
LINE
8
DEFAULT_255_2_778
10
37.3905829
20
12.4023434
11
35.5550401
21
12.4023434
0
LINE
8
DEFAULT_255_2_778
10
40.1463831
20
18.6035019
11
43.8211991
21
15.502916
0
LINE
8
DEFAULT_255_2_778
10
43.8211991
20
15.502916
11
40.1463831
21
12.4023302
0
LINE
8
DEFAULT_255_2_778
10
38.4472646
20
50.849608
11
38.4472646
21
35.9667959
0
LINE
8
DEFAULT_255_2_778
10
38.4472646
20
8.6816404
11
38.4472646
21
-6.2011717
0
LINE
8
DEFAULT_4_2_778
10
40.9277332
20
-6.2011717
11
35.9667959
21
-6.2011717
0
LINE
8
DEFAULT_4_2_778
10
38.4472646
20
-6.2011717
11
38.4472646
21
-8.6816404
0
LINE
8
DEFAULT_4_2_778
10
40.9277332
20
50.849608
11
35.9667959
21
50.849608
0
LINE
8
DEFAULT_4_2_778
10
38.4472646
20
53.3300766
11
38.4472646
21
50.849608
0
ENDSEC
0
EOF