0
SECTION
2
HEADER
0
ENDSEC
0
SECTION
2
TABLES
0
TABLE
2
LTYPE
0
LTYPE
72
65
70
64
2
CONTINUOUS
3
______
73
0
40
0
0
LTYPE
72
65
70
64
2
DASH_DEFAULT_255_2_778_064_085
3
______
73
2
40
2
49
-0.19921568073322585
49
0.2645833259738156
0
ENDTAB
0
TABLE
2
LAYER
0
LAYER
2
DEFAULT_255_2_778
70
0
62
255
6
CONTINUOUS
0
LAYER
2
DEFAULT_255_2_778_064_085
70
0
62
255
6
DASH_DEFAULT_255_2_778_064_085
0
LAYER
2
DEFAULT_4_2_778
70
0
62
4
6
CONTINUOUS
0
ENDTAB
0
ENDSEC
0
SECTION
2
ENTITIES
0
LINE
8
DEFAULT_255_2_778
10
70.2409067
20
48.9892564
11
70.2409067
21
34.1064444
0
LINE
8
DEFAULT_255_2_778
10
70.2409067
20
-6.8212889
11
70.2409067
21
8.6816404
0
LINE
8
DEFAULT_255_2_778
10
70.2409067
20
8.6816404
11
64.039735
21
34.1064444
0
LINE
8
DEFAULT_255_2_778
10
62.2924063
20
21.922694
11
56.6541604
21
18.7117184
0
LINE
8
DEFAULT_255_2_778
10
56.6541604
20
18.7117184
11
63.1293787
21
18.2973582
0
LINE
8
DEFAULT_255_2_778
10
63.1293787
20
18.2973582
11
62.2924063
21
21.922694
0
LINE
8
DEFAULT_255_2_778
10
67.275185
20
21.2025353
11
62.7229638
21
20.151574
0
LINE
8
DEFAULT_255_2_778
10
39.568825
20
21.922694
11
33.9305772
21
18.7117184
0
LINE
8
DEFAULT_255_2_778
10
33.9305772
20
18.7117184
11
40.4058015
21
18.2973582
0
LINE
8
DEFAULT_255_2_778
10
40.4058015
20
18.2973582
11
39.568825
21
21.922694
0
LINE
8
DEFAULT_255_2_778
10
44.5516333
20
21.2025353
11
39.9994081
21
20.151574
0
LINE
8
DEFAULT_255_2_778
10
32.9797118
20
16.3596587
11
31.6246044
21
21.0854965
0
LINE
8
DEFAULT_255_2_778
10
28.7570759
20
17.7057511
11
32.3014533
21
18.7220812
0
LINE
8
DEFAULT_255_2_778
10
55.6611224
20
16.0148781
11
54.3060049
21
20.74072
0
LINE
8
DEFAULT_255_2_778
10
51.4384795
20
17.3609461
11
54.9828609
21
18.3772762
0
LINE
8
DEFAULT_255_2_778
10
17.4666193
20
21.922694
11
11.8283705
21
18.7117184
0
LINE
8
DEFAULT_255_2_778
10
11.8283705
20
18.7117184
11
18.3035958
21
18.2973582
0
LINE
8
DEFAULT_255_2_778
10
18.3035958
20
18.2973582
11
17.4666193
21
21.922694
0
LINE
8
DEFAULT_255_2_778
10
22.448156
20
21.2025353
11
17.8959328
21
20.151574
0
LINE
8
DEFAULT_255_2_778
10
11.0449104
20
16.2455683
11
9.6897969
21
20.9714102
0
LINE
8
DEFAULT_255_2_778
10
6.6536261
20
17.7057511
11
10.1980035
21
18.7220812
0
LINE
8
DEFAULT_255_2_778_064_085
10
67.1403208
20
21.7040877
11
22.4918846
21
21.7040877
0
LINE
8
DEFAULT_4_2_778
10
25.5924837
20
51.4697119
11
25.5924837
21
48.9892432
0
LINE
8
DEFAULT_4_2_778
10
47.9167018
20
51.4697119
11
47.9167018
21
48.9892432
0
LINE
8
DEFAULT_4_2_778
10
70.2409199
20
51.4697119
11
70.2409199
21
48.9892432
0
LINE
8
DEFAULT_255_2_778
10
47.9166886
20
48.9892564
11
47.9166886
21
34.1064444
0
LINE
8
DEFAULT_255_2_778
10
47.9166886
20
-6.8212889
11
47.9166886
21
8.6816404
0
LINE
8
DEFAULT_255_2_778
10
47.9166886
20
8.6816404
11
41.7155169
21
34.1064444
0
LINE
8
DEFAULT_255_2_778
10
25.5924704
20
-6.8212889
11
25.5924704
21
8.6816404
0
LINE
8
DEFAULT_255_2_778
10
25.5924704
20
8.6816404
11
19.3912987
21
34.1064444
0
LINE
8
DEFAULT_255_2_778
10
25.5924704
20
48.9892564
11
25.5924704
21
34.1064444
0
LINE
8
DEFAULT_4_2_778
10
23.112015
20
48.9892564
11
28.0729523
21
48.9892564
0
LINE
8
DEFAULT_4_2_778
10
45.4362331
20
48.9892564
11
50.3971705
21
48.9892564
0
LINE
8
DEFAULT_4_2_778
10
67.7604512
20
48.9892564
11
72.7213886
21
48.9892564
0
LINE
8
DEFAULT_4_2_778
10
67.7604512
20
-6.8212889
11
72.7213886
21
-6.8212889
0
LINE
8
DEFAULT_4_2_778
10
70.2409199
20
-6.8213021
11
70.2409199
21
-9.3017708
0
LINE
8
DEFAULT_4_2_778
10
45.4362331
20
-6.8213021
11
50.3971705
21
-6.8213021
0
LINE
8
DEFAULT_4_2_778
10
47.9167018
20
-6.8213021
11
47.9167018
21
-9.3017708
0
LINE
8
DEFAULT_4_2_778
10
23.112015
20
-6.8213021
11
28.0729523
21
-6.8213021
0
LINE
8
DEFAULT_4_2_778
10
25.5924837
20
-6.8213021
11
25.5924837
21
-9.3017708
0
ENDSEC
0
EOF