0
SECTION
2
HEADER
0
ENDSEC
0
SECTION
2
TABLES
0
TABLE
2
LTYPE
0
LTYPE
72
65
70
64
2
CONTINUOUS
3
______
73
0
40
0
0
LTYPE
72
65
70
64
2
DASH_DEFAULT_255_2_778_064_085
3
______
73
2
40
2
49
-0.19921568073322585
49
0.2645833259738156
0
ENDTAB
0
TABLE
2
LAYER
0
LAYER
2
DEFAULT_255_2_778_064_085
70
0
62
255
6
DASH_DEFAULT_255_2_778_064_085
0
LAYER
2
DEFAULT_255_2_778
70
0
62
255
6
CONTINUOUS
0
LAYER
2
DEFAULT_4_2_778
70
0
62
4
6
CONTINUOUS
0
ENDTAB
0
ENDSEC
0
SECTION
2
ENTITIES
0
LINE
8
DEFAULT_255_2_778_064_085
10
65.1123161
20
22.9443221
11
8.0615364
21
22.9443221
0
LINE
8
DEFAULT_255_2_778
10
16.1228015
20
27.2845952
11
21.0845201
21
28.5242038
0
LINE
8
DEFAULT_255_2_778
10
21.0845201
20
28.5242038
11
24.1851453
21
17.9827569
0
LINE
8
DEFAULT_255_2_778
10
24.1851453
20
17.9827569
11
19.2246258
21
16.7434633
0
LINE
8
DEFAULT_255_2_778
10
19.2246258
20
16.7434633
11
16.1228015
21
27.2845952
0
LINE
8
DEFAULT_255_2_778
10
24.1845696
20
52.7099595
11
24.1845696
21
34.1064444
0
LINE
8
DEFAULT_255_2_778
10
8.0615232
20
26.6650383
11
8.0615232
21
19.2236323
0
LINE
8
DEFAULT_255_2_778
10
46.5087878
20
52.7099595
11
46.5087878
21
34.1064444
0
LINE
8
DEFAULT_255_2_778
10
68.8330059
20
52.7099595
11
68.8330059
21
34.1064444
0
LINE
8
DEFAULT_4_2_778
10
24.1845829
20
55.1904149
11
24.1845829
21
52.7099462
0
LINE
8
DEFAULT_4_2_778
10
46.508801
20
55.1904149
11
46.508801
21
52.7099462
0
LINE
8
DEFAULT_4_2_778
10
68.8330191
20
55.1904149
11
68.8330191
21
52.7099462
0
LINE
8
DEFAULT_255_2_778
10
16.7431768
20
34.1064311
11
24.1845829
21
9.9218615
0
LINE
8
DEFAULT_255_2_778
10
24.1845829
20
9.9218615
11
24.1845829
21
-5.5810678
0
LINE
8
DEFAULT_4_2_778
10
21.7041142
20
52.7099462
11
26.6650515
21
52.7099462
0
LINE
8
DEFAULT_4_2_778
10
44.0283323
20
52.7099462
11
48.9892697
21
52.7099462
0
LINE
8
DEFAULT_4_2_778
10
66.3525504
20
52.7099462
11
71.3134878
21
52.7099462
0
LINE
8
DEFAULT_255_2_778
10
38.4470171
20
27.2845952
11
43.4087276
21
28.5242038
0
LINE
8
DEFAULT_255_2_778
10
43.4087276
20
28.5242038
11
46.5093659
21
17.9827569
0
LINE
8
DEFAULT_255_2_778
10
46.5093659
20
17.9827569
11
41.5488404
21
16.7434633
0
LINE
8
DEFAULT_255_2_778
10
41.5488404
20
16.7434633
11
38.4470171
21
27.2845952
0
LINE
8
DEFAULT_255_2_778
10
39.067395
20
34.1064311
11
46.508801
21
9.9218615
0
LINE
8
DEFAULT_255_2_778
10
46.508801
20
9.9218615
11
46.508801
21
-5.5810678
0
LINE
8
DEFAULT_255_2_778
10
60.7712322
20
27.2845952
11
65.7329488
21
28.5242038
0
LINE
8
DEFAULT_255_2_778
10
65.7329488
20
28.5242038
11
68.8335871
21
17.9827569
0
LINE
8
DEFAULT_255_2_778
10
68.8335871
20
17.9827569
11
63.8730696
21
16.7434633
0
LINE
8
DEFAULT_255_2_778
10
63.8730696
20
16.7434633
11
60.7712322
21
27.2845952
0
LINE
8
DEFAULT_255_2_778
10
61.3916131
20
34.1064311
11
68.8330191
21
9.9218615
0
LINE
8
DEFAULT_255_2_778
10
68.8330191
20
9.9218615
11
68.8330191
21
-5.5810678
0
LINE
8
DEFAULT_4_2_778
10
66.3525504
20
-5.5810678
11
71.3134878
21
-5.5810678
0
LINE
8
DEFAULT_4_2_778
10
68.8330191
20
-5.5810678
11
68.8330191
21
-8.0615364
0
LINE
8
DEFAULT_4_2_778
10
44.0283323
20
-5.5810678
11
48.9892697
21
-5.5810678
0
LINE
8
DEFAULT_4_2_778
10
46.508801
20
-5.5810678
11
46.508801
21
-8.0615364
0
LINE
8
DEFAULT_4_2_778
10
21.7041142
20
-5.5810678
11
26.6650515
21
-5.5810678
0
LINE
8
DEFAULT_4_2_778
10
24.1845829
20
-5.5810678
11
24.1845829
21
-8.0615364
0
ENDSEC
0
EOF