0
SECTION
2
HEADER
0
ENDSEC
0
SECTION
2
TABLES
0
TABLE
2
LTYPE
0
LTYPE
72
65
70
64
2
CONTINUOUS
3
______
73
0
40
0
0
ENDTAB
0
TABLE
2
LAYER
0
LAYER
2
DEFAULT_255_2_778
70
0
62
255
6
CONTINUOUS
0
LAYER
2
DEFAULT_4_2_778
70
0
62
4
6
CONTINUOUS
0
ENDTAB
0
ENDSEC
0
SECTION
2
ENTITIES
0
LINE
8
DEFAULT_255_2_778
10
37.2070302
20
5.8911197
11
42.1679676
21
5.8911197
0
LINE
8
DEFAULT_255_2_778
10
42.1679676
20
5.8911197
11
42.1679676
21
-18.9135671
0
LINE
8
DEFAULT_255_2_778
10
42.1679676
20
-18.9135671
11
37.2070302
21
-18.9135671
0
LINE
8
DEFAULT_255_2_778
10
37.2070302
20
-18.9135671
11
37.2070302
21
5.8911197
0
LINE
8
DEFAULT_255_2_778
10
39.6874989
20
19.5336842
11
39.6874989
21
5.8911065
0
LINE
8
DEFAULT_255_2_778
10
34.7265615
20
5.8911197
11
44.6484363
21
5.8911197
0
LINE
8
DEFAULT_255_2_778
10
34.7265615
20
-18.9135671
11
44.6484363
21
-18.9135671
0
LINE
8
DEFAULT_4_2_778
10
36.586913
20
19.5336975
11
42.7880847
21
19.5336975
0
LINE
8
DEFAULT_4_2_778
10
39.6874989
20
22.6342635
11
39.6874989
21
19.5336776
0
LINE
8
DEFAULT_255_2_778
10
37.2070302
20
0.9301824
11
42.1679676
21
0.9301824
0
LINE
8
DEFAULT_255_2_778
10
42.1679676
20
0.9301824
11
42.1679676
21
-4.030755
0
LINE
8
DEFAULT_255_2_778
10
42.1679676
20
-4.030755
11
37.2070302
21
-4.030755
0
LINE
8
DEFAULT_255_2_778
10
37.2070302
20
-4.030755
11
37.2070302
21
0.9301824
0
LINE
8
DEFAULT_255_2_778
10
37.2070302
20
-8.9916924
11
42.1679676
21
-8.9916924
0
LINE
8
DEFAULT_255_2_778
10
42.1679676
20
-8.9916924
11
42.1679676
21
-13.9526297
0
LINE
8
DEFAULT_255_2_778
10
42.1679676
20
-13.9526297
11
37.2070302
21
-13.9526297
0
LINE
8
DEFAULT_255_2_778
10
37.2070302
20
-13.9526297
11
37.2070302
21
-8.9916924
0
ENDSEC
0
EOF