0
SECTION
2
HEADER
0
ENDSEC
0
SECTION
2
TABLES
0
TABLE
2
LTYPE
0
LTYPE
72
65
70
64
2
CONTINUOUS
3
______
73
0
40
0
0
ENDTAB
0
TABLE
2
LAYER
0
LAYER
2
DEFAULT_255_2_778
70
0
62
255
6
CONTINUOUS
0
LAYER
2
DEFAULT_4_2_778
70
0
62
4
6
CONTINUOUS
0
ENDTAB
0
ENDSEC
0
SECTION
2
ENTITIES
0
LINE
8
DEFAULT_255_2_778
10
33.4863272
20
53.1750507
11
33.4863272
21
28.3703638
0
LINE
8
DEFAULT_255_2_778
10
33.4863272
20
28.3703638
11
42.7880847
21
28.3703638
0
LINE
8
DEFAULT_255_2_778
10
45.8886706
20
53.1750507
11
45.8886706
21
28.3703638
0
LINE
8
DEFAULT_255_2_778
10
36.5869197
20
31.4709464
11
45.8886772
21
15.9680171
0
LINE
8
DEFAULT_255_2_778
10
45.8886772
20
15.9680171
11
45.8886772
21
-8.5266111
0
LINE
8
DEFAULT_4_2_778
10
48.9892564
20
50.694582
11
42.7880847
21
50.694582
0
LINE
8
DEFAULT_4_2_778
10
45.8886706
20
53.7951744
11
45.8886706
21
50.6945886
0
LINE
8
DEFAULT_4_2_778
10
42.7880847
20
-5.1159633
11
48.9892564
21
-5.1159633
0
LINE
8
DEFAULT_4_2_778
10
45.8886706
20
-8.2165558
11
45.8886706
21
-5.11597
0
LINE
8
DEFAULT_4_2_778
10
36.586913
20
50.694582
11
30.3857413
21
50.694582
0
LINE
8
DEFAULT_4_2_778
10
33.4863272
20
53.7951744
11
33.4863272
21
50.6945886
0
ENDSEC
0
EOF