0
SECTION
2
HEADER
0
ENDSEC
0
SECTION
2
TABLES
0
TABLE
2
LTYPE
0
LTYPE
72
65
70
64
2
CONTINUOUS
3
______
73
0
40
0
0
LTYPE
72
65
70
64
2
DASH_DEFAULT_255_2_778_085_043
3
______
73
2
40
2
49
-0.2645833259738156
49
0.13384803549263613
0
ENDTAB
0
TABLE
2
LAYER
0
LAYER
2
DEFAULT_255_2_778
70
0
62
255
6
CONTINUOUS
0
LAYER
2
DEFAULT_255_2_778_085_043
70
0
62
255
6
DASH_DEFAULT_255_2_778_085_043
0
LAYER
2
DEFAULT_4_2_778
70
0
62
4
6
CONTINUOUS
0
ENDTAB
0
ENDSEC
0
SECTION
2
ENTITIES
0
LINE
8
DEFAULT_255_2_778
10
50.539556
20
54.570311
11
50.539556
21
35.9667959
0
LINE
8
DEFAULT_255_2_778
10
50.539556
20
-7.441406
11
50.539556
21
11.1621091
0
LINE
8
DEFAULT_255_2_778
10
50.539556
20
11.1621091
11
44.3383843
21
35.9667959
0
LINE
8
DEFAULT_255_2_778_085_043
10
47.4389569
20
23.5644525
11
28.8354418
21
23.5644525
0
LINE
8
DEFAULT_255_2_778
10
25.734856
20
34.7265549
11
30.6957933
21
16.743157
0
ARC
8
0
10
32.5718979
20
14.2664492
40
3.1163279
50
162.2115662
51
180.0692683
0
ARC
8
0
10
32.5500588
20
14.2686758
40
3.0948563
50
106.233035
51
162.1272995
0
ARC
8
0
10
32.5528735
20
14.2422559
40
3.1210133
50
89.9397024
51
106.1470628
0
ARC
8
0
10
32.5599268
20
14.2469418
40
3.116328
50
72.2115896
51
90.0692914
0
ARC
8
0
10
32.5621544
20
14.2687829
40
3.0948539
50
16.2330235
51
72.1273271
0
ARC
8
0
10
32.5357297
20
14.2659666
40
3.1210159
50
359.9396963
51
16.1470565
0
ARC
8
0
10
32.5404182
20
14.2589129
40
3.116328
50
342.2115896
51
0.0692914
0
ARC
8
0
10
32.5622593
20
14.2566854
40
3.0948539
50
286.2330235
51
342.1273271
0
ARC
8
0
10
32.5594429
20
14.28311
40
3.1210159
50
269.9396963
51
286.1470565
0
ARC
8
0
10
32.5523893
20
14.2784165
40
3.116323
50
252.211574
51
270.0692906
0
ARC
8
0
10
32.5501638
20
14.2565826
40
3.0948563
50
196.2330519
51
252.1273159
0
ARC
8
0
10
32.5765865
20
14.2593968
40
3.1210159
50
179.9396964
51
196.1470567
0
LINE
8
DEFAULT_255_2_778
10
29.4555722
20
14.2626817
11
29.4555722
21
14.2626817
0
LINE
8
DEFAULT_4_2_778
10
53.6401286
20
52.0898423
11
47.4389569
21
52.0898423
0
LINE
8
DEFAULT_4_2_778
10
50.5395428
20
55.1904348
11
50.5395428
21
52.0898489
0
LINE
8
DEFAULT_4_2_778
10
47.4389569
20
-4.9609374
11
53.6401286
21
-4.9609374
0
LINE
8
DEFAULT_4_2_778
10
50.5395428
20
-8.0615298
11
50.5395428
21
-4.960944
0
ENDSEC
0
EOF